Acordes de Guitarra » L »la Ley » Mírate (Tab)

Mírate
la Ley

  • Letra y Acordes
    C              Am
    Mírate / da un paso atrás
    C              Am
    Escucha en silencio
    los tiempos pasar
    C        Am
    Mírate / deja de mirar
    C        Am
    Con ojos que nublan
    Nuestra realidad
    F      G
    Mírame sol y luz
    F      G
    Mirare si eres tu
    
    C        Am
    Mírate / si vas a voltearle
    C        Am
    El rostro a la vida
    Que suele acabar
    
  • Letra y Acordes
    INTRO: C  Am
    C              Am
    MÍRATE, DÁ UN PASO ATRÁS,
    C                         Am
    ESCUCHA EN SILENCIO LOS TIEMPOS PASAR.
    C             Am
    MÍRATE, DEJA DE MIRAR
    C                     Am
    CON OJOS QUE NUBLAN NUESTRA REALIDAD.
    FMAJ7    G         FMAJ7       G
    MÍRAME, SOL Y LUZ. MIRARÉ SI ERES TÚ.
    C           Am
    MÍRATE, SI VAS A VOLTEARLE
    C                        Am
    EL ROSTRO A LA VIDA QUE SUELE ACABAR.
    C           Am
    MÍRATE, SI QUIERES SEMBRAR
    C                         Am
    EL ODIO EN LAS TIERRAS DE TU CARIDAD.
    FMAJ7    G         FMAJ7       G
    
  • Tablatura
    INTRO
    e|-12-----------------------------------------|
    B|----13----15-13-----------------------------|
    G|-------12-------12~~--7h9/12-7h9/1295~---|
    D|--------------------------------------------|
    A|--------------------------------------------|
    E|--------------------------------------------|
    
    e|-12--------------------|--------|
    B|----13----15-13--------|--------|
    G|-------12-------12~~---|--???---|
    D|-----------------------|--???---|
    A|-----------------------|--------|
    E|-----------------------|--------|
    
    
    riff1
    e|---------------------------|
    B|-----10-9---------10-9-----|
    G|-9-9------9-9-9-9------9---|
    D|---------------------------|
    A|---------------------------|
    E|---------------------------|
    
    riff2
    e|---------------------------|
    B|---------------------------|
    G|-------7-6---6---6-7-6-----|
    D|-7-7-7-----7---7-------7---|
    A|---------------------------|
    E|---------------------------|
    
    riff3
    e|---------------------------|
    B|---------------------------|
    G|-14-12--------14-12--------|
    D|---
  • Tab p/Bajo
    Bueno aqui va una espectacular
    cancion Mirate en bajo que se la
    dedico a una persona muy especial
    para mi que no la he visto hace
    mucho tiempo, esta cancion va para ti
    y dice asi:
    
    
    INTRO:
    
    G|-----------------------------------------------|
    D|-----------------------------------------------|
    A|-3--3-3-----3-3-3-----3----------3--3-3--------|
    E|-------33-3------33-3---3/10/3-3-------33-3~~--|
    
    Verso:
      Mirate........
    G|-----------------------------------------------|
    D|-----------------------------------------------|
    A|-3-3-3-----3-3-3--------3-3-3-----3-3-3--------|
    E|------55-5------55-5-55------55-5------55-5-55-|
    
    Pre-coro:
     Mirame sol y luz...........
    G|---------------------------|
    D|---------------------------|
    A|---------------------------|
    E|-1-1-1-33-3-1-1-1/33-3-33--|
    
    Verso:
    Mirate........
    G|-----------------------------------------------|
    D|-----------------------------------------------|
    A|-3-3-3-----3-3-3--------3-3-3-----3-3-3--------|
    E|------55-5------55-5-55------55-5--
  • +
    ¡Colabora con nosotros!
    Envíanos tu versión de esta canción

Letra de Mírate
Mírate / da un paso atrás
Escucha en silencio
los tiempos pasar
Mírate / deja de mirar
Con ojos que nublan
Nuestra realidad
Mírame sol y luz
Mirare si eres tu
Mírate / si vas a voltearle
El rostro a la vida
Que suele acabar
Mírate / si quieres sembrar
El odio en las tierras
De tu caridad
Mírame sol y luz
Mirare si eres tu
Vuelve a sentir
Vuelve a soñar
Vuelve a gritar
Mírate / somos de verdad
Sin trapos ni ropa
No hay mas que robar
Mírate / no olvides jamás
Si escupes al cielo
Te vas a mojar
Mírame sol y luz
Mirare si eres tu
Vuelve a sentir
Vuelve a soñar
Vuelve a gritar que vamos a lograr
Dejar de pensar
si es momento para reaccionar
no niegues nunca aquello
que provenga de tu corazón
deja de dormir
este tiempo es para despertar
te mentiría si esto
fuera solo una canción de amor
Mírate / en la oscuridad
Descubre la luz que destella al final
Mírate / y podrás olvidar
Historias e histeria de tu vanidad
Mírame sol y luz
Mirare si eres tu
Vuelve a sentir
Vuelve a soñar
Vuelve a gritar que vamos a lograr
Dejar de pensar
si es momento para reaccionar
no niegues nunca aquello
que provenga de tu corazón
Deja de volar
Ya es momento
Para aterrizar
Te cubriría a besos
Sin razón y solo para amar
Deja de dormir
Este tiempo es para despertar
Te mentiría si esto
Fuera solo una canción de amor



© LaCuerda.net · aviso legal · privacidad · contacto