Acordes de Guitarra » L »la Ley » Doble Opuesto (Tab)

Doble Opuesto
la Ley

Letras, Acordes y Tabs para Guitarra, Bajo y Ukulele

  • Intro: G-F-C (X 2)
    
       G
    A) Supe que tu ya prefieres
       F             C
       encontrar tu doble opuesto
       G
       me dijeron los que saben
       F                 C
       no te quiere haz lo correcto
    
    Intro: G-F-C
    
    A) Los segundos corren poco a poco
       y nuestro tiempo vaga
       es cuestion que ya te pongas a pensar
       vuelve a mi, frena tu vuelo
    
       Am                         C
    B) Y ya no tocas ni siquiera manos
    
  •   G F C
    |-------|
    |-8-6---|utilizen algo de distor con un poco
    |-7-5-5-|de delay para el efecto
    |-5-3-5-|
    |-5-3-3-|
    |-------|
    
    Solo
    Este es el solo ke se oye en la canción, se repite en unas
    partes oiganla para saber en donde
    *-hagan ke chille esta nota
    ~-vibren la nota normal
    |----------------------------------------|
    |----------------------------------------|
    |-5/7-777~-5-7-7/9-5~-5*5*5*-------------|
    |----------------------------5h7-5h7-5~~-|
    |----------------------------------------|
    |----------------------------------------|
    
    
  • Bueno aquí tienen el bajo  que esta excelente, así que aquí les va 
    
    principio
    1-------------------------------------------------------------------
    2-------------------3-2-------------------------------3-2-----------
    3----------------------3-3-33-1--------------------------3-3-33-1---
    4-3-3--3-3-333-3-11-------------1---3-3--3-3-333-3-11-------------1-
    
    
    intermedio
      siempre que tu ...
    1---------------------------------
    2---------------------------------
    3-----------------------2--2-221--
    4-3-3--3-3-333-3-1-1-1-1--------1-
    
    
    coro:
    
    y ya no tocas....
    1---------------------------------
    2---------------------------------
    3---------------------------------
    4-5-5--5-5-555-7-8-8-78-8-88-7-5--
  • +
    ¡Colabora con nosotros!
    Envíanos tu versión de esta canción

Letra de Doble Opuesto
A) Supe que tu ya prefieres
encontrar tu doble opuesto
me dijeron los que saben
no te quiere haz lo correcto
A) Los segundos corren poco a poco
y nuestro tiempo vaga
es cuestion que ya te pongas a pensar
vuelve a mi, frena tu vuelo
B) Y ya no tocas ni siquiera manos
te vas de lado y vas dejando cosas
y poco a poco tu amor me destroza
y ya no tocas ni siquiera manos
ooh oh oh oh oh
A) Trepas y no te estremeces
por alla resbala a un lado
me dijeron los que saben
que este affaire no es solo nuestro
A) Es cuestion que ya te pongas a pensar
vuelve a mi, frena tu vuelo
B) Y ya no tocas ni siquiera manos
te vas de lado y vas dejando cosas
y poco a poco tu amor me destroza
y ya no tocas ni siquiera manos
ooh oh oh oh oh
Inter(final): Am-C (se toca varias veces hasta el final
de la cancion)




[Doble Opuesto chords][Doble Opuesto cifra]
© LaCuerda.net · aviso legal · privacidad · es · en · pt · contacto