Acordes de Guitarra » L »la Ley » Dia Cero (unplugged) (Tab)

Dia Cero (unplugged)
la Ley

Letras, Acordes y Tabs para Guitarra, Bajo y Ukulele

  • Gm
    Veo Lo Que Creo Ver Y No Veo Más
    De Lo Que Pueda Contar No Recuerdo Nada
    F                                                Gm
    No Hay Necesidad De Hablarlo Más
    
    Gm
    Creo Creer, Temo Temer Que Esto Es Verdad
    La Vida Se Nubló En Su Totalidad
    F
    Estoy Perdido
            Am
    Y No Sé Mirar Lo Que Dejé Allá Atrás 
    
    Bb             D#
    En Ese Camino Largo
    Dm
    Que Un Día Me Vió Caminar
    Bb              D#
    Nació Esta Ciega Herida
    
  •     E    E
    ? :(587565)
    Bb:(688766)
    Eb:(668886)
    
    
    INTRO:
    e|---------------------
    B|---------------------
    G|---------------------
    D|------------0/3-3----
    A|------3-1-3----------
    E|----3----------------
    
    Riff 1:
    
    e|--------------------------------------------
    B|--------------------------------------------
    G|--------------------------------------------
    D|---------7--7---5--5----3--3--2--2----------
    
  •  INTRODUCCION: SOLm    FA   SOLm   FA  SOLm   FA
    
    SOLm
      veo lo que creo ver y no veo mas
      
      de lo que pueda contar no recuerdo nada
          FA                      SOLm   FA  SOLm   FA 
      no hay nesecidad de canarlo mas
    
    SOLm
      Creo creer debo entender que esto es verdad
    
      la vida se compró en su totalidad
         FA              Am
      estoy perdido y no sé mirar lo que dejé allá atraz
    
      LA#       RE#         REm         
      En ese camino largo que un día me vio caminar
      LA#          RE#         REm                  LA#    RE#   REm
      nació esta ciega herida que borró el día de ayer
    
  • Bbm(688666)
    EbM(668886)
    Dm(557765)
    
      0:12/1:31
    E|----------------------------------------------------------------|
    B|-11-13-10~~--11x11-10x10-8x8-6x--11-13-10~~--11x11-10x10-8x8-6x-|
    G|----------------------------------------------------------------|
    D|----------------------------------------------------------------|
    A|----------------------------------------------------------------|
    E|----------------------------------------------------------------|
    
            0:39       |         0:45       |   0:59  |   1:02  |    1:05     |
    E|---------1-------|--------------------|---------|---------|-------------|
    B|-----------1-----|-11x11-10x10-8x8-6x-|-3---3-1-|---------|-1---0-------|
    G|---0p2p3-----3-2-|--------------------|-3p5-3-2-|---------|---2---2-----|
    D|-3---------------|--------------------|---------|-3p5-3---|---------3---|
    A|-----------------|--------------------|---------|-------3-|-----------3-|
    E|-----------------|--------------------|---------|---------|-------------|
    
    
  • pm - palm mute – tocar la cuerda solo poniendo el dedo de 
    la mano izquierda sin llegar a un armónico.
    
    
     Intro con guitarra...
      Gm           Gm           F 
    G|------------|------------|------------|-------------|
    D|------------|------------|------------|-------------|
    A|----------3-|----5-----5-|----3-----3-|---3---310---|
    E|3--3-6-3-3-3|3-3---3-3--3|1-1---1-1—-1|1-1-1-1---310|
     *   7 veces  *  4 veces   *         2  veces         *
     
      Gm 
    G|------------|------------||
    D|------------|------------||
    A|----------3-|----------33||
    E|3--3-6-3-3-3|3--3-6-3-3--||
    
      Creo creer...
      Gm           F            Am
    G|------------|------------|------------||
    D|------------|------------|------------||
    A|----------3-|----3-----3-|00---0-0---0||
    E|3--3-6-3-3-3|1-1---1-1—-1|---0-----0--||
     *  4 veces   *   2 veces  *
    
      En ese camino... ( coro )
      Bb           Eb           Dm
    G|------------|------------|-------------||
    D|------------|------------|----
  • +
    ¡Colabora con nosotros!
    Envíanos tu versión de esta canción

Letra de Dia Cero (unplugged)
Veo Lo Que Creo Ver Y No Veo Más
De Lo Que Pueda Contar No Recuerdo Nada
No Hay Necesidad De Hablarlo Más
Creo Creer, Temo Temer Que Esto Es Verdad
La Vida Se Nubló En Su Totalidad
Estoy Perdido
Y No Sé Mirar Lo Que Dejé Allá Atrás
En Ese Camino Largo
Que Un Día Me Vió Caminar
Nació Esta Ciega Herida
Que Borró Hoy Día Mi Ayer
Personas Extrañas Hablan De Quién Fui
Pretenden Darme Valor Sin Que Sepa Nada
No Hay Necesidad Ni Siquiera
De Llorar Por Estar Así
Mi Amnesia Me Dice Absolutamente Nada Más
Que Esa Sensación De Ansiedad
En Ese Camino Largo
Que Un Día Me Vio Caminar
Quemé Una Biografía
Y Soplé Cenizas Del Ayer
No Intenten Enseñarme Quien Me Quiso
Y A Quién Debo Amar
Comienza El Día Cero
Y Mañana Su Continuidad...
Sh da da dan dao Sh da da dan dao
Y Suplir Cenizas Del Ayer
Sh da da dan dao Sh da da dan dao
Y Suplir Cenizas De Mi Ayer
No Intenten Enseñarme
Sh da da dan dao Sh da da dan dao
Sh da da dan dao Sh da da dan dao
Quien Me Quiso Y A Quien Debo Amar
Sh da da dan dao Sh da da dan dao
Sh da da dan dao Sh da da dan dao
Sh da da dan dao Sh da da dan dao
Sh da da dan dao Sh da da dan dao
Quién Me Quiso Y A Quién Debo Amar...




[Dia Cero (unplugged) chords][Dia Cero (unplugged) cifra]
© LaCuerda.net · aviso legal · privacidad · es · en · pt · contacto