Acordes de Guitarra » L »la Ley » Animal (unplugged) (Tab)

Animal (unplugged)
la Ley

  • Letra y Acordes
    E  Esus4  (x  2)
    
    E                                Esus4
    El Ojo De Tu Amor Se Va A Cerrar
            E                                   Esus4
    Y No Sé Si Acaso Vuelva A Despertar
    E                                  Esus4
    Yo Sobreexistiré Con El Viejo Sol
                 E                                  Esus4
    Bajo El Manto De Alguna Autocompasión
                E         Esus4
    Para Creer
                     E                                  Esus4
    Que Los Llantos Que Ahogan Este Amanecer
                       E       Esus4
    Me Harán Brotar 
    
    E
    
    E                                  Esus4
    
  • Tablatura
    E|-----------------------------------------|
    B|---3p5--5--5--5/7--7/9--9/10--10--10--10-|
    G|-----------------------------------------|
    D|-----------------------------------------|
    A|-----------------------------------------|
    E|-----------------------------------------|
    
    E|------------------------------------------------|
    B|-9--7--5--7/9--9--7--7--9---------5-------------|
    G|---------------------------4--4p6---4p6---4p6p4-|
    D|------------------------------------------------|
    A|------------------------------------------------|
    E|------------------------------------------------|
    
    (Outro punteo)
    E|-----------------------------------------|
    B|---3p5--5--5--5/7--7/9--9/10--10--10--10-|
    G|-----------------------------------------|
    D|-----------------------------------------|
    A|-----------------------------------------|
    
  • Tablatura
    |-------------------------------------------------------------------------|
      *---------------*
      |  p:pull of    |
      |  h:hammer on  |
      |  /:slide      |
      *---------------* 
    
      *Intro: 0:29
    E|-----------------------------------------|
    B|---3h5--5--5--5/7--7/9--9/10--10--10--10-|
    G|-----------------------------------------|
    D|-----------------------------------------|
    A|-----------------------------------------|
    E|-----------------------------------------|
    
    E|------------------------------------------------|
    B|-9--7--5--7/9--9--7--7--9---------5-------------|
    G|---------------------------4--4h6---4h6---4h6p4-|
    D|------------------------------------------------|
    A|------------------------------------------------|
    
  • Tab p/Bajo
    E. CABALLERO
    
    REPETIR 
    G--------------------------
    D--------------------------
    A------0000------0000------
    E-0000------0000-----------
    
    G--------------------------
    D-----77----77----77--77---
    A--77----77----77---77-----
    E--------------------------
    
    PARA CREER...
    
    G--------------------------
    D------------77-7-7-7-7----
    A-77-7-7-7-7---------------
    E--------------------------
    REPETIR TODO HASTA...
    
    BESAME Y BESAME...
    
    G-2-4-2-4-2-45-5-5-4-4-2--
    D-------------------------
    A-------------------------
    E-------------------------
  • +
    ¡Colabora con nosotros!
    Envíanos tu versión de esta canción

Letra de Animal (unplugged)
El Ojo De Tu Amor Se Va A Cerrar
Y No Sé Si Acaso Vuelva A Despertar
Yo Sobreexistiré Con El Viejo Sol
Bajo El Manto De Alguna Autocompasión
Para Creer
Que Los Llantos Que Ahogan Este Amanecer
Me Harán Brotar
El Mar De Norte A Sur Se Va A Secar
Y No Sé Si Pueda Ahora Navegar
Para Volver
Y Los Llantos Que Ahogan Este Atardecer
Me Harán Viajar
Solamente Solo Existo En Este Altar
Solamente Solo Persisto En Este Amar
El Hijo De Una ‘Star’ Se Va A Acostar
Y No Sé Si Quiera Ahora Levantarse
Para Crecer
Y Los Llantos Que Ahogan Su Anochecer
Lo Harán Gritar
Besame Y Besame Hasta Sentirte
Animal
Besame Y Besame Hasta Morir
Besame Y Besame Hasta Sufrir
Animal
Besame Y Besame Hasta Morir
Du du du du



© LaCuerda.net · aviso legal · privacidad · contacto