Acordes de Guitarra » L »la Ley » Al Final (unplugged) (Tab)

Al Final (unplugged)
la Ley

  • Letra y Acordes
     SIm LA RE LA SIm LA SIm
    
    SIm                    LA    FA#           SIm
      Cuántas veces intenté alejarme de tu red
                            LA          FA#
      muchas más de las que yo recuerdo
    SIm                    LA    FA#           SIm
      blanco viste tu obsesión negro es tu corazón
                        LA          FA#
      encadenas mi absoluta libertad
    
    SIm
    
    SIm                    LA    FA#           SIm
      Me envenenas de placer diluyendo tu traición
                      LA         FA#
      y me creo fuera de peligro
    SIm                    LA    FA#           SIm
      tengo ganas de vivir luego me quiero morir
                          LA          FA#
    
  • Tablatura
    |-------------------------------------------------------------------------|
      *---------------*
      |  /:slide      |
      |  ~:vibrato    |
      |  h:hammer on  |
      |  p:pull of    |
      *---------------*
    
      *Intro:
      0:00
    E|----------3--------------------------------6-6h8-11/6~-----------------------------|
    B|-4--6---4---------------------------6-6/8~--------------8/4---6h8----3/2/3/2/3/2/3-|
    G|-5----3-----13/3/5-5--4/0---3h5~--8-------------------------8------7---------------|
    D|-5------------------------6--------------------------------------------------------|
    A|-----------------------------------------------------------------------------------|
    E|-----------------------------------------------------------------------------------|
    
      0:27 (En esta parte entran las dos guitarras)
    E|-------------1---3--------------1----------------|
    B|--------4---3---4--------------3------4-----4--4-|
    
  • Tablatura
       Cm  Bb D# Bb Cm Bb Cm --> ( X2 )
     E|-3-------------------------------------6-6/8-----11/10---------------------------------|
     B|-4--6-8-------------------------4-6/8------------------11------8/6---6/8---------------|
     G|-5--------8/7------------------------------------------------------8-----7-7/8/7/8/7/8-|
     D|-5------------5---5/3-1-3/5------------------------------------------------------------|
     A|-3-------------------------------------------------------------------------------------|
     E|-3-------------------------------------------------------------------------------------|
    
     en esta parte entra el bajo
       0:27
       Cm Bb D# Bb Cm Bb Cm
     E|-3--1-----------------------------------------|
     B|-4--3--------------------------------------4--|
     G|-5--3--3-5-5/7-3------------------------------|
     D|-5--3-----------------------------------------|
     A|-3--1-----------------6/5---------------------|
     E|-3--1------------------------6----6---3-------|
    
    
    
    
  • +
    ¡Colabora con nosotros!
    Envíanos tu versión de esta canción

Letra de Al Final (unplugged)
Cuántas veces intenté alejarme de tu red
muchas más de las que yo recuerdo
blanco viste tu obsesión negro es tu corazón
encadenas mi absoluta libertad
Me envenenas de placer diluyendo tu traición
y me creo fuera de peligro
tengo ganas de vivir luego me quiero morir
mi equilibrio tambalea en un circo fatal
Porque al.........al final el dolor será vital
porque al.........al final el dolor será vitalidad
A mi lado siempre estás acechando mi aflicción
lista para atormentar mi calma
me desvías cuando voy al encuentro con mi ser
y otra vez destruyes la esperanza de llegar
de salvarme y escapar
porque al.........al final el dolor será vital
porque al.........al final el dolor será vitalidad
condenaste mi existir recluido en la ciudad
venerándote como un pagano
sepultado sin soñar
porque al.........al final el dolor será vital
porque al.........al final el dolor será vital
porque al.........al final el dolor será vitalidad
Dedicada a la eterna amiga llamada guitarra...



© LaCuerda.net · aviso legal · privacidad · contacto