Acordes de Guitarra » L »la Ley » Al Final (Tab)

Al Final
la Ley

Letras, Notas, Punteos, Tablaturas y Acordes de Guitarra (Tabs & Chords)

  • Letra y Acordes
    E--5/9-----------------------------------------------------------------------------
    B-------------------------5/6--6/8--11--11/13--16--11------------------------------
    C-----------------------------------------------------12/10---10/12-----------------
    D-------12/5--5/3-0--3/5------------------------------------12-------12--12VIBRAR--
    A-----------------------------------------------------------------------------------
    E----------------------------------------------------------------------------------
    
     
    
      Intro:
     Cm  Bb  D#  Bb  Cm  Bb  Cm
    
    Cm                    Bb    G           Cm
      Cuántas veces intenté alejarme de tu red
                            Bb          G
      muchas más de las que yo recuerdo
    Cm                      Bb        G          Cm
      blanco viste tu obsesión negro es tu corazón
                        Bb          G
      encadenas mi absoluta libertad
    
  • Letra y Acordes
    Cm   Gm
    
    
    Cm                 Gm
    CUANTAS VECES INTENTE
       G           Cm
    ALEJARME DE TU RED
               Gm         G
    MUCHAS MAS DE LAS QUE YO RECUERDO
    
    
    Cm                      Gm
    BLANCO VISTE TU OBSESION
          G         Cm
    NEGRO ES TU CORAZON
           Gm        G
    ENCADENAS MI ABSOLUTA LIBERTAD
    
    
    (2 VECES)
    
  • Tablatura
       Bm   A    F#            D               D
    e|-2~~--0~~--x---------------2/3-3-5/6-7\6-3~~|
    B|-3~~3-2~~2-x--------------3-----------------|
    G|-4~~--2~~--3~~-----------2------------------|
    D|-4~~--2~~--4~~3/2-2-3\4~~-------------------|
    A|-2~~--0~~--4~~------------------------------|
    E|-2~~--0~~--2~~------------------------------|
    
                  E A
    e|-2/1-0-1\2~~x-x------------|
    B|------------x-2------------|
    G|------------1-2~~/3\2/3\2~~|
    D|------------2-2------------|
    A|------------2-0------------|
    E|------------0-x------------|
    
    segunda parte:(aquì la segunda guitarra comienza a rasguar el ritmo)
    
       Bm   A     F#   A 
    e|-2~~--0~~---x--x-x--|
    
  • Tablatura
      Bm(-5)     Bm        Bm(-5)
    E|--X--|-----X--|------X--|---------------|---------------------------|
    A|--2--|-----2--|------2--|--2/0--0--0/3--|---------------------------|
    D|--4--|-----4--|------4--|--4/1--0--1/4--|--4------------------------|
    G|--4--|--4--4--|-4/3--4--|---------------|--4------------------------|
    B|--3--|--3--3--|-3/2--3--|---------------|----0--0-------------------|
    e|--X--|-----2--|------X--|---------------|----0--0/1--5-5/7--10/9-5--|
                  Bm(-5)
    E|---------------X--------|--7/0--|
    A|---------------2--------|-------|
    D|---------------4--------|-------|
    G|---------------4--------|-------|
    B|--0----0--0----3---2/3--|-------|
    e|--2/0--0--0/2--X--------|-------|
    
    Intro 2:
      Bm(-5)       D                              Bm(-5)
    E|--X--|-------------------|---------|----------X--|
    A|--2--|-------------------|--4/5-2--|----------2--|
    D|--4--|-------0-----------|---------|----------4--|
    
  • +
    ¡Colabora con nosotros!
    Envíanos tu versión de esta canción

Letra de Al Final
CUANTAS VECES INTENTE
ALEJARME DE TU RED
MUCHAS MAS DE LAS QUE YO RECUERDO
BLANCO VISTE TU OBSESION
NEGRO ES TU CORAZON
ENCADENAS MI ABSOLUTA LIBERTAD
(2 VECES)
ME ENVENENAS DE PLACER
DILUYENDO TU TRAICION
Y ME CREO FUERA DE PELIGRO
TENGO GANAS DE VIVIR
LUEGO ME QUIERO MORIR
MI EQUILIBRIO TAMBALEA EN UN CIRCO FATAL
(2 VECES)
PORQUE A......................AL FINAL
EL DOLOR SERA VITAL
PORQUE A......................AL FINAL
EL DOLOR SERA VITALIDAD
A MI LADO SIEMPRE ESTAS
ACECHANDO MI AFLICCION
LISTA PARA ATORMENTAR MI CALMA
ME DESVIAS CUANDO VOY
AL ENCUENTRO CON MI SER
Y OTRA VEZ DESTRUYES LA ESPERANZA DE LLEGAR
DE SALVARME Y ESCAPAR
(2 veces)
PORQUE A......................AL FINAL
EL DOLOR SERA VITAL
PORQUE A......................AL FINAL
EL DOLOR SERA VITALIDAD
(4 VECES)
CONDENASTE MI EXISTIR
RECLUIDO EN LA CIUDAD
VENERANDOTE COMO UN PAGANO
SEPULTADO SIN SOÑAR
PORQUE A......................AL FINAL
EL DOLOR SERA VITAL
PORQUE A......................AL FINAL
EL DOLOR SERA VITAL
PORQUE A......................AL FINAL
EL DOLOR SERA VITALIDAD
(4 VECES)
*ACORDES*
Esta cancion quiero dedicarcela a una amiga que acabo de
conocer. Aun si no nos conocemos muy bien,
quiero que hacerte ver que puedes contar conmigo en lo que sea.
Con mucho cariño, para ti Alicia. Espero llegar a conocerte mas.



© LaCuerda.net · Aviso Legal · Privacidad