Acordes de Guitarra » K »Kraken » Fragil al viento (Tab)

Fragil al viento
Kraken

Letras, Acordes y Tabs para Guitarra, Bajo y Ukulele

  • |----------------------------------------------------------------------
    |-----15-13-10-11~--13b15r13-10--11b13r11-8-6-5-3---5b6r5b6------------
    |--12------------------------------------------------------------------
    |----------------------------------------------------------------------
    |----------------------------------------------------------------------
    |----------------------------------------------------------------------
    
    
    
    |----------------------------------------------------------------------
    |--5b6r5b6-5b6r5b6-5b6r5b6--3-5-6--15-15-13-10-11~--13b15r13-10--------
    |----------------------------------------------------------------------
    |----------------------------------------------------------------------
    |----------------------------------------------------------------------
    |----------------------------------------------------------------------
    
    
    |----------------------------------------------------------------------
    |-11h13p11---8-6-5-3---5b6r5b6-5b6r5b6-5b6r5b6-5b6r5b6---3~~~~---------
    |----------------------------------------------------------------------
    
  • |----------------------------------------------------------------------
    |-----15-13-10-11~--13b15r13-10--11b13r11-8-6-5-3---5b6r5b6------------
    |--12------------------------------------------------------------------
    |----------------------------------------------------------------------
    |----------------------------------------------------------------------
    |----------------------------------------------------------------------
    
    
    
    |----------------------------------------------------------------------
    |--5b6r5b6-5b6r5b6-5b6r5b6--3-5-6--15-15-13-10-11~--13b15r13-10--------
    |----------------------------------------------------------------------
    |----------------------------------------------------------------------
    |----------------------------------------------------------------------
    |----------------------------------------------------------------------
    
    
    |----------------------------------------------------------------------
    |-11h13p11---8-6-5-3---5b6r5b6-5b6r5b6-5b6r5b6-5b6r5b6---3~~~~---------
    |----------------------------------------------------------------------
    
  • e----------------------------------------------------------------------------------------------------------------------------------
    B----------------3--1-------------1--3--1------------1-----------------------------------------------------------------------------
    G-----------------------2--3p----------------2----3-----3--0-----------------------------------------------------------------------
    D-----------------------------------------------------------------3--2--0--2--3--2--3--2--3--2--3--2--3--2--3--2--3--0--2--3-------
    A-----------0----------------------------------------------------------------------------------------------------------------------
    E----------------------------------------------------------------------------------------------------------------------------------
    
    
    e----------------------------------------------------------------------------------------------------------------------------------
    B----------------3--1-------------1--3--1------------1-----------------------------------------------------------------------------
    G-----------------------2--3p----------------2----3-----3--0-----------------------------------------------------------------------
    D-----------------------------------------------------------------3--2--0--2--3--2--3--2--3--2--3--2--3--2--3--2--3--0-------------
    A-----------0----------------------------------------------------------------------------------------------------------------------
    E----------------------------------------------------------------------------------------------------------------------------------
    
    
       Dm                           A#
    En suplicas de amor me he convertido
    
          Dm                     A#       Am
    
  • Esta es una version en concierto, asi que si no es la que han escuchado 
    ya saben...Aqui Va:
    
    
    
    
    
    INTRO:
    
    
    
    |----------------------------------------------------------------------
    |-----15-13-10-11~--13b15r13-10--11b13r11-8-6-5-3---5b6r5b6------------
    |--12------------------------------------------------------------------
    |----------------------------------------------------------------------
    |----------------------------------------------------------------------
    |----------------------------------------------------------------------
    
    
    
    |----------------------------------------------------------------------
    |--5b6r5b6-5b6r5b6-5b6r5b6--3-5-6--15-15-13-10-11~--13b15r13-10--------
    |----------------------------------------------------------------------
    |----------------------------------------------------------------------
    |----------------------------------------------------------------------
    |----------------------------------------------------------------------
    
  • +
    ¡Colabora con nosotros!
    Envíanos tu versión de esta canción

Letra de Fragil al viento
ACORDES INTRODUCCIÓN
En suplicas de amor me he convertido
no encuentro una salida y me siento morir
como podre vivir
sin descifrar,la intensidad de los designios, bajo mi signo.
DISTOR (ON)
Mis huellas bajo el sol, hoy sienten frío
buscando una respuesta, me he perdido si
y es que estoy aqui
sin saber si huir
o enfrentar y sepultar en el olvido, lo ya vivido...
donde queda...
DISTOR (OFF)
todo aquello que vivi, donde quedara
cada palabra que sentí, donde quedan
DISTOR (ON)
las pequeñas cosas simples
si hoy me duele comprender
el ayer que ya se fue
y que jamas, regresará, haciendo distinto...
huella y camino
INTERLUDIO
donde queda...
DISTOR (OFF)
todo aquello que vivi, donde quedara
cada palabra que sentí, donde quedan
DISTOR (ON)
las pequeñas cosas simples
si hoy me duele comprender
el ayer que ya se fue
y que jamas, regresará, haciendo distinto...
huella y camino.
Uoouo




[Fragil al viento chords][Fragil al viento cifra]
© LaCuerda.net · aviso legal · privacidad · es · en · pt · contacto