Acordes de Guitarra » K »Kraken » Lenguaje de mi piel (Tab)

Lenguaje de mi piel
Kraken

Letras, Acordes y Tabs para Guitarra, Bajo y Ukulele

  • Em Bm
    Mentiras mi voz aun no ha muerto
    Em
    no,  no, no, no
     Bm 
    solo he tomado un nuevo aliento
    Em     Bm
    como la ausencia es silencio 
    Em     Bm
    quien sabra lo que yo siento.
    A D
    cuanto di sin esperar, no, oh,no,oh
    G    A A7
    ya no se ni que pensa - a - r.
    D
    Lenguaje de mi piel camino fiel 
         Bm
    que lleva a mi verda - ad
       G     A
    tiempo y voz noche de luna 
    
  • Em                          Bm 
    Mentiras mi voz aun no ha muerto 
                  Em
    no, no, no, no 
                              Bm 
    solo he tomado un nuevo aliento 
    Em                     Bm 
    como la ausencia es silencio 
    Em                     Bm
    quien sabra lo que yo siento 
    A                  D
     Cuanto di sin esperar, no, oh, no, oh 
    G                   A    A7
     ya no se ni que pensa-a-ar 
     
     
    Coro:
    D
     Lenguaje de mi piel camino fiel 
         Bm 
    
  • INTRO
    
    e---------0-0-2-3-2-0-----0-----3-----0--
    B-0-------------3-3-0-2-3---3-2-3-2-3----
    G---0---0-------------4-4----------------
    D-2---2----------------------------------
    A----------------------------------------
    E----------------------------------------
    
    
    e---------0-0-2-3-2-0-----0-----3-----0--
    B-0-------------3-3-0-2-3---3-2-3-2-3----
    G---0---0-------------4-4----------------
    D-2---2----------------------------------
    A----------------------------------------
    E----------------------------------------
    
    
    e-------3-2-0-
    B-----3-3-3-2-
    G---4-------2-
    D-4---------2-
    A-----------0-
    E-------------
    Quien sabra lo que yo siento
    Bajo la lluvia me siento triste
    
    e---5--3--2-
    B-3---3--3--
    G-----------
    D-----------
    A-----------
    E-----------
    Camino fiel que lleva a mi verdad
    
    e-2--4--5--4--2--4--2-
    B--2--2--2--2--2--2---
    G---------------------
    D---------------------
    A---------------------
    E---------------------
    na... na ra na na na
    
    
    Solo
    
    e-----------------------------9-10-12----
    B-7-7-8-7-9
  • +
    ¡Colabora con nosotros!
    Envíanos tu versión de esta canción

Letra de Lenguaje de mi piel
Mentiras mi voz aun no ha muerto
no, no, no, no
como la ausencia es silencio
quien sabra lo que yo siento.
cuanto di sin esperar, no, oh,no,oh
ya no se ni que pensa - a - r.
Lenguaje de mi piel camino fiel
que lleva a mi verda - ad
tiempo y voz noche de luna
para danzar [dime]
lenguaje de mi piel
ausencia que me duele soporta - ar
porque yo te siento aire al respirar
Na,na,na,na,na
na,na,na,na,na,na.
Pocas palabras para tantos momentos
que poco queda sobre el cuerpo del desierto
mil preguntas sobreviven como esfinge
bajo la luna me siento triste
Cuanto di sin esperar, no,oh,no,oh
ya no se ni que pensa - a - ar
Lenguaje de mi piel camino fiel
que lleva a mi verda - ad
tiempo y voz noche de luna
para danzar (dime)
lenguaje de mi piel
ausencia que me duele soporta - ar
porque yo te siento aire al respirar
Na,na,na,na,na
na,na,na,na,na,na




[Lenguaje de mi piel chords][Lenguaje de mi piel cifra]
© LaCuerda.net · aviso legal · privacidad · es · en · pt · contacto