Acordes de Guitarra » K »Kraken » No me hables de amor (Tab)

No me hables de amor
Kraken

Letras, Acordes y Tabs para Guitarra, Bajo y Ukulele

  • e|-----0-2-3-3-2-3----------------|
    B|-0-0----------------------------|
    G|--------------------------------|
    D|--------------------------------|
    A|--------------------------------|
    E|--------------------------------|
    X3 creo
    e|---7-5-3-2-0-2-3-3-2-3----------|
    B|--------------------------------|
    G|--------------------------------|
    D|--------------------------------|
    A|--------------------------------|
    E|--------------------------------|
    
    e|---7-5-3-2-0--------------------|
    B|-------------4------------------|
    G|--------------------------------|
    D|--------------------------------|
    A|--------------------------------|
    E|--------------------------------|
    
  • +
    ¡Colabora con nosotros!
    Envíanos tu versión de esta canción

Letra de No me hables de amor
X3 creo
Riff 1
Riff2
Le pedí a gritos que entendiera
Todos sus caprichos aceptaba
Francamente yo cerré mi puerta
Y no le dije nada
Riff 3
Riff 4 dos veces
Verso 2
Me atormentan sus mentiras quiero ir en busca de la noche
Hoy me siento muerto en vida solo tiene para mi reproches
Riff 5
No me detengas, quiero marchar
Que no entiendes, no entiendo si digo ya
Riff 4 (dos veces)
No me hables de amor
Riff4
Verso 3
Con palabras que usa siempre me atormentan quedan en mi mente
… blanco es mi hechicero bajo un manto oscuro consejero
Riff 5
No me detengas, si quiero marchar
Que no entiendes, no entiendo si digo ya
No me hables de amor
Ya no es tiempo de hablar
No me hables de amor
Poco importa me voy ya
No me hables de amor
Ya no es tiempo de hablar.
Luego va el solo, se repite el coro, va el cuarto verso.
Finalmente acaba con el coro y con E5 C5 D5.
tuve q hacer muy pokas correccion solament en el intro
puede q hayan pequeños errores en la correcion pero uds mismos pueden
arreglarla
pd mi primera trad :O




[No me hables de amor chords][No me hables de amor cifra]
© LaCuerda.net · aviso legal · privacidad · es · en · pt · contacto