Acordes de Guitarra » K »Kjarkas » Imillitay (Tab)

Imillitay
Kjarkas

Letras, Acordes y Tabs para Guitarra, Bajo y Ukulele

  • DOm              SIb 
    Dijiste que me querias 
    SOLm           DOm
    pero no es verdad
                      SIb 
    siempre jugaste nomigo
    Som            DOm
    y aun te supe amar
    
    DOm                SIb 
    Vivo pensando olvidarte
    SOLm        DOm
    y no lo consigo
    DOm                  SIb 
    tus recuerdos son espinas
    Som            DOm
    que hieren mi alma
    
    SOL#                  RE# 
    Muyusta, muyusta imillitay
    
  • Am G Em, Am
    Am G Em, Am, C, G, Em, Am, C, G, Em, Am
    
     Am                G    Em              Am
    Dijiste que me querías pero no es verdad;
                        G    Em               Am
    Siempre jugaste conmigo y aun te supe amar.
    
    
     Am                 G    Em           Am
    Vivo pensando olvidarte y no lo consigo,
                         G      Em             Am
    Tus recuerdos son espinas, que hieren mi alma.
    
    
     F                C
    Muyuspa, muyuspa, imillitay,
      G            D
    K’ori k’entijina....
     F                C
    
  • Intro: Am - G - Am - G - Am
    
    
    
    e|-------------------|---------------|
    B|---1-1-1-0-------0-|---0-0-0-------|
    G|-----------2-0-----|-0-------2-0-2-|
    D|-2-------------2---|---------------|
    A|-------------------|---------------|
    E|-------------------|---------------|
    
    ---0-0-0-----------|-----------------|
    ---------3-1-0---3-|---3-3-3-1-0-----|
    -2-------------0---|-0-----------2---|
    -------------------|-----------------|
    -------------------|-----------------|
    -------------------|-----------------|
    -------------------|-----------------|
    
    ---0-0-0-----------|-----------------|
    
  • +
    ¡Colabora con nosotros!
    Envíanos tu versión de esta canción

Letra de Imillitay
Dijiste que me querias
pero no es verdad
siempre jugaste nomigo
y aun te supe amar
Vivo pensando olvidarte
y no lo consigo
tus recuerdos son espinas
que hieren mi alma
Muyusta, muyusta imillitay
q'ory q'enti jina
Muyusta, muyusta imillitay
saper pai huankiii
imillitay saper pari huanquipuni
imillitay saper pari huanquipuni
mario2050@latinmail.com
PD: Dedicado con mucho amor para Yandira Z.Z. de Mario
La quiero mucho y la extraño.




[Imillitay chords][Imillitay cifra]
© LaCuerda.net · aviso legal · privacidad · es · en · pt · contacto
DINAMICO