Acordes de Guitarra » K »Kjarkas » Munasq´echay (Tab)

Munasq´echay
Kjarkas

Letras, Acordes y Tabs para Guitarra, Bajo y Ukulele

  • Intro: //Em  D  C  D  Em //(bis)
    
       Em
    //Munasq´echay
                   D
      tuta punchay masq´akunay
                C
      tarispa susququnay
             Em
      warmicitay//(bis)
    
       Bm
    //K´anray cullay
              A
      ñakarin viday
              C
      soq´o ukullay
            Em
      sipacitay//(bis)
    
    
  •      E (no5)       D           C             A      E       D
    1) -3---3--3--2---2--2--0-0-0-3-0--------0-----------0--2-2-2-0/2/0--0
    2) ----0--0-0----3--3-3-1-----------1-1-1-0/1/0-----0--------------3--
    3) ---0--0------2--2----0-----------0-0-0----------0-----2------------
    4) -2---------0---------------------------------2S4----0--------------
    5) --------------------3--3-3-3-3--0-0--------------------------------
    6) --------------------------------------------0---------------------0
    
    1) ---0--(12)--
    2) --0--(12)---
    3) -0--(12)----             PARA ESTA PARTE SE DEBE LEER LAS
    4) ------------             INDICACIONES DEL INICIO...
    5) ------------
    6) ------------
    
       SEGUNDA PARTE
         E (no5)   D           C             A      E       D
    1) -3--3S7-7-2-2-2S7-7--0-0-0-3-0---------0------------0-2-2-2-0/2/0-0
    2) ---0-------3---------1-----------1-1-1-0/1/0------0--------------3-
    3) --0------------------0-----------0-0-0-----------0-----2-----------
    
  • 1|-3-----3------|-2-----2------|---0-0-0-0--3-0-------------
    2|-----0---0----|-----0---0----|---1-1-1-1------3---3-3---3-
    3|---0-------0--|---2-------2--|------------------0-----0---
    4|-2------------|-0------------|----------------------------
    5|--------------|--------------|-3--------------2-----------
    6|--------------|--------------|----------------------------
    
                 (Esta parte se
                  hace pulsando
                 y luego jalando
                  rápidamente)
                      |
                      v
    |------------0-----------------0-|----2---2-2--0h2p0---0-|------0---------12A||
    |---1---1-1----1-0h1p0-------0---|----3---3-3--------3---|----0-------12A----||
    |---2---2-2----------------0-----|------2----------------|--0-----12A--------||
    |----------------------2/4-------|--0--------------------|-------------------||
    |-0---0--------------------------|-----------------------|-------------------||
    |----------------0---------------|-----------------------|-------------------||
    
    
  •     Em       D        C               G        Am           Em
    E I-3--3--- -2--2--- ---0-0-0-0-3-0- -------- ---------0-- --------0--
    B I---0-0-- ---3-3-- ---1-1-1-1-1-1- -3-33-3- ---1---1--1- -0-----0---
    G I--0---0- --2---2- --------------- --0--0-- --------2--- ------0----
    D I-2------ -0------ --------------- -------- ------------ -----------
    A I-------- -------- -3------------- -2------ -0---0------ --2-7------
    E I-------- -------- --------------- -------- ------------ -0---------
    
        D             Em             Em          D           C
    E I---2---2-2-0- -0--- -----12- -3-3-3-7-7- -2-2-2-7-7- --0-0-0-0-3-0-
    B I-----3-3-0-3- ---0- ----12-- -5-5-5-8-7- -3-3-3-8-8- --1-1-1-1-1-1-
    G I------------- --0-- -9-12--- ----------- ----------- --------------
    D I-0---0------- ----- -------- ----------- ----------- --------------
    A I------------- ----- -------- ----------- ----------- -3------------
    E I------------- -0--- -------- ----------- ----------- --------------
    
        G          Am             Em        D               Em
    E I---------- -----------0-- -------0- ---2---2-2-0--- -0-0-----------
    B I-3--3-3-3- ---1---1----1- -0----0-- -------3-3-0-3- ----3-0--------
    G I---0---0-- ---------2---- -----0--- --------------- -------2-0-2---
    
  • pues les mando esta fabulosa cancion
    me encantarla tocarla
    dedicada a mi munasq'echay
    
    Munasq'echay
    E|--0-|---|---|----|
    A|----|-5-|-3-|-7--| x2
    D|----|---|---|----|
    G|----|---|---|----|
    
    agraykullay?
    E|--2--2-2-|--03--0--|--3--3--|----------|--2--2-2-|--03--0--|--3--3--|---|
    A|-2-2--2--|-0--0--0-|-3-3--3-|--2----2--|-2-2--2--|-0--0--0-|-3-3--3-|---|
    D|---------|---------|--------|-2-4-2--2-|---------|---------|--------|-2-|
    G|---------|---------|--------|----------|---------|---------|--------|---|
    
    E|---7---7----|--2-----2--|--7----7----|--2-----2---|
    A|--7-7-7-9-2-|-2-2-0-2---|-7-57-7-9-2-|-2-2-0-2----|
    D|------------|---------0-|------------|---------0--|
    G|------------|-----------|------------|------------|
    
    E|--------|-0-5-7----|-7----|--7--|--5----|--5----|-77--|-77--|
    A|--3-2-0-|------5-7-|--5-7-|-7-7-|-5-3-5-|-5-5-7-|---7-|-----|
    D|--------|----------|------|-----|-------|-------|-----|-----|
    G|--------|----------|------|-----|-------|-------|-----|-----|
    
    E|---5-----|--5-----
  • +
    ¡Colabora con nosotros!
    Envíanos tu versión de esta canción

Letra de Munasq´echay
//Munasq´echay
tuta punchay masq´akunay
tarispa susququnay
warmicitay//(bis)
//K´anray cullay
ñakarin viday
soq´o ukullay
sipacitay//(bis)
//Mi buen amor,
mi herida de amor mi verdad
mi credo razón de vivir,
mi lluvia de abril//(bis)
//Gracias a ti
mi triste vivir
pudo cambiar
en un jardín.//(bis)
A continuacion: Version Completa
Versión original (letra revisada)
Ritmo: K´antu
//Munasq´echay
tuta punchay masq´akunay
tarispa susququnay
warmicitay//(bis)
//K´anray cullay
ñakarin viday
soq´o ukullay
sipacitay//(bis)
//Mi buen amor,
mi herida de amor mi verdad
mi credo razón de vivir,
mi lluvia de abril//(bis)
//Gracias a ti
mi triste vivir
pudo cambiar
en un jardín.//(bis)
Munasq´echay, Gracias a ti mi buen amor, mi razón de vivir
warmicitay, tuta punchay masq´akunay...
Tu sabes que esta composición te la dedico a ti... ** Lm + Gb**
Cochabamba - Bolivia 2007




[Munasq´echay chords][Munasq´echay cifra]
© LaCuerda.net · aviso legal · privacidad · es · en · pt · contacto