Acordes de Guitarra » K »Kjarkas » Fría (Tab)

Fría
Kjarkas

Letras, Acordes y Tabs para Guitarra, Bajo y Ukulele

  • Em  Am7  D G B7
    Em  Am7  D G B7
    
    
         Em               Am7
    ahora que te conozco bien
               C                                   B7  C B7
    comprenderas que ya no quiero mas saber…….. de ti
            Em                           D
    si para ti yo siempre fui un perde…dor
                                           G    E7
    un pobre ser  que tiene nada para ofrecer
           Am7                         B7
    un soñador poeta gris que en su dolor
           C                   B7       Em      C B7
    equivoco su corazón amandote, amandote
    
      Em                     Am7
    fria tienes el alma tan fria
                    D                       G B7
    
  • bueno ahi les va esta cancion que ami me costo sacarla y espero
    que la puedan tocar
    ----------------------------------------------------------------
    ----------------------------------------------------------------
    ----------------------------------------------------------------
    -----0--2--3-----0--2--3-----0--2--3---------0--2--3-----0--2--3
    --0-----------0-----------0---------------1-----------1---------
    ----------------------------------------------------------------
    
    ----------------------------------------------------------------
    ----------------------------------------------------------------
    ----------------------------------------------------------------
    -----0--2--3-------------0--2--0--------------------------------
    --1-------------------3------------3--1--3--1--0-----1----------
    -------------------3------------------------------3-----3--4--5-
    
    ---6--5--6--7--6-6----------------------------------------------
    ----------------------------------------------------------------
    ----
  • E-------0-1------0-1-------0-1--------0-1--------0-1--------0-1---
    B----3----------3---------3----------3----------3---------3-------
    G--2---------2---------2----------3----------3---------3----------
    D-----------------------------------------------------------------
    A-----------------------------------------------------------------
    E-----------------------------------------------------------------
    
    E--------0---------------------------5-4-5-6-5--
    B----1-3---3-1-0-1-0----------------------------
    G--0-------------------2-0-3-2-0-3-2------------
    D-----------------------------------------------
    A-----------------------------------------------
    E-----------------------------------------------
    
    
    La Intro. se puede hacer con las mismas notas
    Dm Gm C F A7
    
     Dm                   Gm
    Ahora que te conozco bien
    
  • MI ------0-1------0-1------0-1-------0-1------0-1------0-1-
    SI ---3---------3--------3--------3---------3--------3-----
    SOL-2---------2--------2--------3---------3--------3-------
    RE --------------------------------------------------------
    LA --------------------------------------------------------
    MI --------------------------------------------------------
    
    --------0-------------------------------5--4--5--6---5-5-
    ---1--3---3--1---1---------------------------------------
    -0-------------3---3--2--0--3--0--1-2---5--4--5--6---5-5-
    ---------------------------------------------------------
    ---------------------------------------------------------
    ---------------------------------------------------------
    
    2do Pre verso (00:13)
      REmSOLmDOFALA7
    ======    ======   ======  ======  ======
    |||||o    ||||||   ||||o|  ++++++  ||||||
    |||o||   3++++++   ||o|||  |||o||  ||o|o|
    ||||o|    ||||||   |o||||  |oo|||  ||||||
    
  • +
    ¡Colabora con nosotros!
    Envíanos tu versión de esta canción

Letra de Fría
ahora que te conozco bien
comprenderas que ya no quiero mas saber…….. de ti
si para ti yo siempre fui un perde…dor
un pobre ser que tiene nada para ofrecer
un soñador poeta gris que en su dolor
equivoco su corazón amandote, amandote
fria tienes el alma tan fria
hermosa pero vacia que es incapaz de amar [BIS]
dudo que cambies algun dia
por que una vida vacia llenaste de vanidad
ZAMPOÑAS
si para ti yo siempre fui un perde…dor
un pobre ser que tiene nada para ofrecer
un soñador poeta gris que en su dolor
equivoco su corazón amandote, amandote
fria tienes el alma tan fria
hermosa pero vacia que es incapaz de amar [BIS]
dudo que cambies algun dia
por que una vida vacia llenaste de vanidad
dudo que cambies algun dia
por que una vida vacia llenaste de vanidad




[Fría chords][Fría cifra]
© LaCuerda.net · aviso legal · privacidad · es · en · pt · contacto