Tablatura para Guitarra de Juanes: Para tu amor
Conexión · Inscripción
Letras y Acordes
Pantalla Completa
Imprimir
Versión Texto
Añadir Favorito
Otras Versiones

Mostrar Diagramas
Desfile Automático
Manipular Acordes
Formato del Texto


Para tu amor(TAB)

Juanes

calidad:
juan0293
AUTOR: Juanes
ALBUM: Mi Sangre (2004)
Enviado por javier
QUE TAL UN SALUDO LES DEJO MI
PRIMERA APORTACIÓN ESPERANDO
LES GUSTE , CUALQUIER CORRECION
O CRITICA. ES BIEN RECIBIDA

 introducción
para que suene al tono de la canción
les recomiendo usar capo en el primer traste

1---------------------------0-----------------------------------
2--------------------0--1-0-----1-----1-----1-----1-----------3-
3--2--2-- x---0-----0---0-1-------2-----2-----0-----0-- 5-4-2---
4--0--0---x---0----0----2-0-----2-----2-----2-----2-----7-5-4---
5---------x-----------------------------------------------------
6--3--3---x---3---3---------------------------------------------

este intro se utiliza en la primera estrofa
lo vamos a dividir en dos partes para poder
acoplarlo a la estrofa de la cancio

(parte 1)

1----------------------------0
2--------------------0---1-0--
3--2--2-- x---0-----0----0-1--
4--0--0---x---0----0-----2-0--
5---------x-------------------
6--3--3---x---3---3-----------

   Para  tu amor lo tengo todo

(parte 2)

1-----------------------------------------------
2--------1-------1-----1-----1---------------3--
3------------2------2-----0-----0-------5-4-2---
4--------2-------2-----2-----2----------7-5-4---
5-----------------------------------------------
6-----------------------------------------------

Desde mi sangre hasta la esencia de mi ser

1----------------------------0
2--------------------0---1-0--
3--2--2-- x---0-----0----0-1--
4--0--0---x---0----0-----2-0--
5---------x-------------------
6--3--3---x---3---3-----------

Y  para tu amor que es mi tesoro


(PARTE 3)

1------------------------------------
2--------1-----1---------------------
3---------2-----2--------------------
4--------2-----2---------------------
5----------------------------2-------
6------------------3------2----------

RE Tengo mi vida toda entera a tus pies
LAm DO Y tengo también
RE LAm RE DO SOL Un corazón que se muere por dar amor
DO Y que no conoce el fin
RE LAm SIm Un corazón que late por vos (parte 1) 1----------------------------0 2--------------------0---1-0-- 3--2--2-- x---0-----0----0-1-- 4--0--0---x---0----0-----2-0-- 5---------x------------------- 6--3--3---x---3---3----------- Para tu amor no hay despedidas (parte 2) 1------------------------------------------- 2--------1-------1-----1-----1-----------3-- 3------------2------2-----0-----0---5-4-2--- 4--------2-------2-----2-----2------7-5-4--- 5------------------------------------------- 6------------------------------------------- Para tu amor yo solo tengo eternidad (parte 1) 1----------------------------0 2--------------------0---1-0-- 3--2--2-- x---0-----0----0-1-- 4--0--0---x---0----0-----2-0-- 5---------x------------------- 6--3--3---x---3---3----------- Y para tu amor que me ilumina (PARTE 3) 1------------------------------------ 2--------1-----1--------------------- 3---------2-----2-------------------- 4--------2-----2--------------------- 5----------------------------2------- 6------------------3------2----------
RE Tengo una luna, un arco iris y un clavel
LAm DO Y tengo también
RE LAm RE DO SOL Un corazón que se muere por dar amor
DO Y que no conoce el fin
RE LAm SIm Un corazón que late por vos
SOL Por eso yo te quiero 1------------ 2------------ 3------------ 4------------ 5---------- 2 6--3-2-------
LAm RE tanto que no sé como explicar lo que siento
SOL yo te quiero 1------------ 2------------ 3------------ 4------------ 5---------- 2 6--3-2-------
LAm RE porque tu dolor es mi dolor y no hay dudas
SOL yo te quiero 1------------ 2------------ 3------------ 4------------ 5---------- 2 6--3-2-------
LAm RE con el alma y con el corazón te venero
SOL hoy y siempre 1------------ 2------------ 3------------ 4------------ 5---------- 2 6--3-2-------
LAm RE gracias te doy a ti mi amor por existir INTRODUCCIÓN 1---------------------------0----------------------------------- 2--------------------0--1-0-----1-----1-----1-----1-----------3- 3--2--2-- x---0-----0---0-1-------2-----2-----0-----0-- 5-4-2--- 4--0--0---x---0----0----2-0-----2-----2-----2-----2-----7-5-4--- 5---------x----------------------------------------------------- 6--3--3---x---3---3--------------------------------------------- Para tu amor lo tengo todo lo tengo todo y lo que no tengo también lo conseguiré para tu amor que es mi tesoro tengo mi vida entera a tus pies Y tengo también un corazon que se muere por dar amor y que no conoce el fin un corazon que late por vos Por eso yo te quiero tanto que no se como explicar lo que siento yo te quiero porque tu dolor es mi dolor y no hay dudas yo te quiero con el alma y con el corazon te venero hoy y siempre, gracias yo te doy a ti mi amor por existir Y EMPEZAMOS DE NUEVO CON LA SEGUNDA PARTE DE LA LETRA..LES RECOMIENDO ESCUCHAR LA CANCIÓN PARA QUE SE LES FACILITE EJECUTAR ESTA INTERPRETACIÓN UN SALUDOS DESDE ESCARCEGA CAMPECHE (JAVIER CAMBRANIS)
Este fichero es trabajo propio de su transcriptor y representa su interpretación personal de la canción. El material contenido en esta página es
para exclusivo uso privado, por lo que se prohibe su reproducción o retransmisión, así como su uso para fines comerciales.

© LaCuerda.net · Aviso Legal · Privacidad