Acordes de Guitarra » J »Juanes » Para ser eterno (Tab)

Para ser eterno
Juanes

Letras, Acordes y Tabs para Guitarra, Bajo y Ukulele

  • F#m           C*          F#m              C* 
    Cuanto diera por cambiar todo aquello que hice mal 
    F#m           C*        F#m        C* 
    cuanto diera por morir y volver a despertar 
    F#m           C*           F#m          C* 
    cuanto diera yo en mi afan por hacerte regresar 
    F#m           C*         F#m             C* 
    cuanto dieran estos ojos por volverte a ver. 
    
    
    Bm   F#m    C*         F#m      Bm 
    no esta tu cuerpo pero si tu recuerdo 
       F#m       C#7 
    si bajas del cielo llevame a tu lado. 
    
    
    F#m        C*       F#m            C* 
    solitario corazon ya no es tiempo de llorar 
    F#m        C*         F#m      C* 
    lo pasado ya paso y lo hecho ,hecho esta 
    
  • Bm        C#7    E7 C#7F#m     E7   D7 C#7                  F#m
    e/--------------------------------------------------------------/
    b/------------2------------2------5--3--2---2-------------------/
    G/-----------4-4----------2-2-----7--5--4--4-------(4slide6)----/  x 2 veces
    d/---4--4---3---3-------4----4--------------------3------------4/
    a/-2--0-----------6--3----------7---5--4-4------4------------4--/
    E/--------4------7--4--2----------------------------------------/
    
    Bm        C#7                      F#m
    e/------------------------------------/
    b/---------------2--------------------/
    g/-------------4--4------(4slide6)----/
    d/---4--4----3-----3---3-------------4/
    a/-2--0--------------4--------------4-/
    E/---------4--------------------------/
    
    
    1 estrofa:
    
    
    
  • ****************************************
    [by aNdREa 04/08/2002 (a1308@yahoo.com)]
    ****************************************
          
    [INTRO]
     
    e-----------------------------------x---x---x--------------------------/
    b------------2-----3---------2------5---3---2-------2------------------/
    g-------4---4-4----4--4-------2-2---4---2---1-1---1-----1/2--4--6--2---/
    d---4--4---4---4---0--0-----4--4-----6---4--3---3--------------------4-/
    a-2--0-------------2--x----4--------x---x---x--------------------------/
    E--------4------------4--2----------4---2---1-----------1/2--4--5--2---/ 
    
    
    ***************
    Primera estrofa:
    ***************
    
    e-^^--------.-.---.--.---^^-------.-.---.--.-:/
    b-23-2~--.--3-2---3--2---23-2~-.--3-2---3--2-:/
    g--------1.-----.--------------2.-----.------:/
    d---------3-----3---------------4-----4------:/
    a--------------------------------------------:/
    E--------------------------------------------:/
    
    Cuanto diera po cambiar, todo aquello que hice mal
    Cua
  • e-------------)(----------------)(--------------)(-----------------)
    B---------2---)(-3---------2----)(-5--3--2----2-)(-----------------)
    G-----4--4-4--)(-4--4-------2-2-)(-4--2--1-1-1--)(-1/2-4-6-4--2----)
    D--4-4--4---4-)(----6-----4--4--)(--6--4----3---)(-------------4---)
    A-2-0---------)(-2-------4------)(--------------)(--------------4--)
    E------4------)(----4--2--------)(-4--2--1------)(-1/2-4-5-4-2-----)
    
    
    * Las dos primeras veces que se toca el intro se hace completo, en la tercera
    solo la parte 1 y 4.
    
    
    En la segunda parte del intro entra la 2ª guitarra, hay que escucharla 
    con cuidado para coger el ritmo.
    
    
         Parte 1           Parte 2          Parte 3         Parte 4
    e----------------)(---------------)(---------------)(--------------)
    B--3--2--0----0--)(--3--2------2--)(---------------)(------2-----2-)
    G-4--2--1--1-1-1-)(-4--2---2------)(--4--2--1---1--)(-1/2-4-4r2-2--)
    
  • +
    ¡Colabora con nosotros!
    Envíanos tu versión de esta canción

Letra de Para ser eterno
Cuanto diera por cambiar todo aquello que hice mal
cuanto diera por morir y volver a despertar
cuanto diera yo en mi afan por hacerte regresar
cuanto dieran estos ojos por volverte a ver.
no esta tu cuerpo pero si tu recuerdo
si bajas del cielo llevame a tu lado.
solitario corazon ya no es tiempo de llorar
lo pasado ya paso y lo hecho ,hecho esta
alguien tiene la razon no se puede hechar atras
no se puede hechar atras cuando esta tan tarde.
no esta tu cuerpo pero si tu recuerdo
si bajas del cielo llevame a tu lado
si bajas del cielo llevame a tu lado
amor de humo blanco,amor del quebranto
si bajas del cielo llevame a tu lado
para empezar a crecer para ser eternos.
por que la distancia no es el fin para ser eternos
que tu recuerdo vivira en mi para ser eterno
para ser... eterno
*la nota C* solo se manejo asi para ahorrar espacio.
transcripcion por: isaac torres solis
sugerencias o comentarios: bunbury_k@hotmail.com




[Para ser eterno chords][Para ser eterno cifra]
© LaCuerda.net · aviso legal · privacidad · es · en · pt · contacto