Acordes de Guitarra » J »Juanes » Minas Piedras (Tab)

Minas Piedras
Juanes

Letras, Notas, Punteos, Tablaturas y Acordes de Guitarra (Tabs & Chords)

  • Letra y Acordes
    G
    Son caminos de caminos
                       D
    Donde las piedras son las minas
                       C
    Que van ropiendo huesos
                    G
    de la tierra que se queja
                    A            D
    dejando invalida la esperanza
    
    G
    La dulce voz de un niño
                  D
    se torna en la tormenta
                    C
    de un llanto incontrolable
                G
    de dolores viscerales
               A                 D
    
  • Letra y Acordes
                        G
    Son caminos de caminos
                       D
    Donde las piedras son las minas
                       C
    Que van ropiendo huesos
                    G
    de la tierra que se queja
                    A            D
    dejando invalida la esperanza
    
                     G
    La dulce voz de un niño
                  D
    se torna en la tormenta
                    C
    de un llanto incontrolable
                G
    de dolores viscerales
               A                 D
    
  • Tablatura
    esta es la primera ke hago para la kuerda...
    depronto hay ke korregir algo, ahy esta mi korreo
    se les kiere desde kolombia.
    
    solo:
    
    1|------4--3--4--3--1-------------------4-----------|
    2|--4------------------555555-----4-5-7---888888----|
    3|-------------------------------5------------------|
    4|--------------------------------------------------|
    5|--------------------------------------------------|
    6|--------------------------------------------------|
    
    1|-----6--------------------------------------------|
    2|-8-9---9-8-9v-6--8-9-11-9-8-9---------------------|
    3|------------------------------10------------------|
    4|--------------------------------------------------|
    5|--------------------------------------------------|
    6|--------------------------------------------------|
    
    1|--------------------3-4-4/5-4----8-4--------------|
    2|-----------5-3-1-2-------------6------------------|
    3|-----3-5-3----------------------------------------|
    4|--5-----------------------------------------------|
    5|
  • +
    ¡Colabora con nosotros!
    Envíanos tu versión de esta canción

Letra de Minas Piedras
Son caminos de caminos
Donde las piedras son las minas
Que van ropiendo huesos
de la tierra que se queja
dejando invalida la esperanza
La dulce voz de un niño
se torna en la tormenta
de un llanto incontrolable
de dolores viscerales
que no entiende la inocencia
Los árboles estan llorando
son testigos de tantos años de violencia
El mar esta marrón, mezcla de sangre con la tierra
Pero ahi vienen bajando de la montaña con la esperanza
Las madres que den por sus hijos
y que sus libros para la escuela son su soñar
Pero ahi vienen bajando de la montaña con la esperanza
hombres y niños mal heridos, buscando asilo
buscando un sitio, para soñar y amar
SIGUE IGUAL A LA PARTE DE ARRIBA
No merecemos el olvido, somos la vos del pueblo
dice un señor sentado, con sus dos ojos vendados
pero que aún tiene la esperanza en sus manos
Los árboles estan llorando
son testigos de tantos años de violencia
El mar esta marrón, mezcla de sangre con la tierra
Pero ahi vienen bajando de la montaña con la esperanza
Las madres que den por sus hijos
y que sus libros para la escuala son su soñar
Pero ahi vienen bajando de la montaña con la esperanza
hombres y niños mal heridos, buscando asilo
buscando un sitio, para soñar y amar
Son caminos de caminos (X3)

Videos de Minas Piedras
[ver más videos]

[ver todas las canciones]


© LaCuerda.net · Aviso Legal · Privacidad