Tablatura para Guitarra de Juanes: Para tu amor
Conexión · Inscripción
Letras y Acordes
Pantalla Completa
Imprimir
Versión Texto
Añadir Favorito
Otras Versiones

Mostrar Diagramas
Desfile Automático
Manipular Acordes
Formato del Texto


Para tu amor(TAB)

Juanes

calidad:
juan0292
AUTOR: Juanes
ALBUM: Mi Sangre (2004)
Enviado por Jesus
Esta es mi primer trascripción espero que les sirve de algo.
Se la quiero dedicar a todos mis amigos de la
voca 1 “Gonzalo Vázquez Vela”,y a una chava muy especial.

CAPO EN EL PRIMER TRASTE
e-------------------0---------------------------------------
B--3-3----3-----0-0--0--------------5-5--3--3---------------
G--0----4--4----2-1-1---------------5-5------2--------------
D-----------5-----2------2--2---------5--0----0-------------
A-------5-------3-------3--3--------3-----------------------
E--3-------------------3--3---------------------------------
*Para tu amor, lo tengo todo, desde mi sangre hasta
la esencia de mi ser

**Para tu amor no hay despedidas, para tu amor yo
solo tengo eternidad

***Para tu amor, lo tengo todo, lo tengo todo y lo
que no tengo también

e-------------------0---------------------------------------
B--3-3----3-----0-0--0---1-1-------5-5--3-------------------
G--0----4--4----2-1-1----0-0-------5-5----------------------
D-----------5--------------2-------5----0-------------------
A-------5-------3-2------3-----------3----------------------
E--3--------------------------------------------------------
*Y para tu amor que es mi tesoro, tengo mi vida toda
entera a tus pies

**Y para tu amor que me ilumina, tengo una luna un
arcoiris y un clavel

*** Lo conseguiré para tu amor, que es mi tesoro tengo
mi vida toda entera a tus pies

e-----0--------2h3--------3----3----0-----------------------
B----1-1------3---3------3----3----0-0----------------------
G---2---2----2-----2----0----2----0---0---------------------
D-----------0-----------------------------------------------
A--3--------------------------------------------------------
E---------------------3----2----0---------------------------
*Y tengo también un corazón que se muere por dar amor
y que no conoce
**Y tengo también un corazón que se muere por dar amor
y que no conoce
***Y tengo también un corazón que se muere por dar amor
y que no conoce

e-----0--------3-----3----3--------------------------------
B----1-1------3-----3----3---------------------------------
G---2---2----0-----0----2----------------------------------
D----------------------0-----------------------------------
A--3--------2----3-----------------------------------------
E----------------------------------------------------------
*el fin… un corazón que late por voz
**el fin… un corazón que late por voz
***el fin… un corazón que late por voz

Coro:
e-------3----------3-----------0----------2----------------
B--3--3-3-3---3--3-3-3----1--1-1-1---3--3-3-3--------------
G----0-----0---0------0-----0-----0----2-----2-------------
D------------------------------------0---------------------
A-------------------------3--------------------------------
E--3----------3--------------------------------------------
**Por eso yo te quiero, tanto que no se como explicar,
lo que siento
***Por eso yo te quiero, tanto que no se como explicar,
lo que siento

**Yo te quiero, porque tu dolor es mi dolor,
y no hay dudas
***Yo te quiero, porque tu dolor es mi dolor,
y no hay dudas

**Yo te quiero, con el alma y con el corazón,
te venero
***Yo te quiero, con el alma y con el corazón,
te venero

e-------3----------3-----------0----------3----3----3-------
B--3--3-3-3---3--3-3-3----1--1-1-1-------3----3-----3-------
G----0-----0---0------0-----0-----0----0-----0------2-------
D---------------------------------------------------0-------
A-------------------------3----------2------3---------------
E--3----------3---------------------------------------------
**Hoy y siempre, gracias yo te doy a ti mi amor, por existir.
***Hoy y siempre, gracias yo te doy a ti mi amor.

Solo:
e---------------------------------------------------------------
B---------------------------------—---5/6-5-5h6-6p5p3---7h8-7-5-
G-3/4-2-0----------6-7----4-5-6-7-8-9v--------------------------
D----------2-2-4-5----------------------------------------------
A---------------------------------------------------------------
E---------------------------------------------------------------

e---------------------------------------------------------------
B--7-3----------------------------------------------------------
G------4-0---5-3h4-2--------------------------------------------
D--------------------5-2-4-5-4-2-4------------------------------
A------------------------------------5--------------------------
E---------------------------------------------------------------

* Primera parte     ** Segunda parte     ***Tercera Parte
-El solo se toca junto con los acordes del Coro de fondo
-El coro también se puede hacer Rasgueado
Este fichero es trabajo propio de su transcriptor y representa su interpretación personal de la canción. El material contenido en esta página es
para exclusivo uso privado, por lo que se prohibe su reproducción o retransmisión, así como su uso para fines comerciales.

© LaCuerda.net · Aviso Legal · Privacidad