Acordes de Guitarra » J »Jovenes Pordioseros » Todavía no puedo olvidarte (Tab)

Todavía no puedo olvidarte
Jovenes Pordioseros

Letras, Acordes y Tabs para Guitarra, Bajo y Ukulele

  • C       B7              Em
     Todavia   no puedo olvidarte
    C       B7                Em
     Todavia  no te puedo olvidar...
    
    Riff intro
    
                    C               B7           Em
    |e|---------------|----------------|-------------------|
    |B|---------------|----------------|-------------------|
    |G|---------------|----------------|-------------------|
    |D|-----------0-2~|------------2-1~|----2-4-4/5~-4-1-2~|
    |A|------0p2p3----|----------------|-------------------|
    |E|-0p2p3---------|----------------|-------------------|
    
        C              B7    Em
    |e|----------|-----------------|
    |B|----------|-----------------|
    |G|----------|-----------------|
    |D|-7/9-7~---|-4/5-4---1-2~----|
    
  • Solo
    
    e|-----------------------------------------------
    B|-----------------------------------------------
    G|-14b-14b---14ba-p12-14v--14-12h14-12-----------
    D|-------------------------------------14-12-14v-
    A|-----------------------------------------------
    E|-----------------------------------------------
    
    
    e|-------------------------------------------------------------
    B|-------------------------------------------------------------
    G|-12-12-12-12-12-12-12-12-12-12-------------------------------
    D|-------------------------------------------------------------
    A|---------------------------------s12p10--12-10--10-12h14p12--
    E|-------------------------------------------------------------
    
      |-------P.M.------------------|
    
    
    
    e|-------------------------------------------------------------
    B|-------------------------------------------------------------
    G|-------------------------------------------------------------
    D|-------------------------------------------9------9-9-10p9---
    A|-10-12-10b--
  • +
    ¡Colabora con nosotros!
    Envíanos tu versión de esta canción

Letra de Todavía no puedo olvidarte
Todavia no puedo olvidarte
Todavia no te puedo olvidar...
Riff intro
Todavia no puedo olvidarte,
me clavaste mil mentiras
Que seria de nosotros sin los otros, mi amor.
Que sera del amor que me prometio?
Cuando el amigo es el dolor,
si te quise, fue sin querer.
Cuando el amigo es el temor,
si te quise, no lo busque.
Tus ojos se fueron con la lluvia del mes,
me congelo con la soledad.
Quiero saber si tenes un minuto (para mi)
porque yo tengo mi vida entera para vos.
Cuando el amigo es el dolor,
si te quise, fue sin querer.
Cuando el amigo es el temor,
si te quise, no lo busque.
Todavia no puedo olvidarte
Todavia no te puedo olvidar...
Cuando el amigo es el dolor,
si te quise, fue sin querer.
Cuando el amigo es el temor,
si te quise, no lo busque.
Riff intro
HABLADO (sobre Riff intro)
Te digo...muchas gracias
por los besos que me diste
no sabía lo caro que ibas a cobrar.




[Todavía no puedo olvidarte chords][Todavía no puedo olvidarte cifra]
© LaCuerda.net · aviso legal · privacidad · es · en · pt · contacto
DINAMICO