Acordes de Guitarra » J »Jovenes Pordioseros » Descontrolado (Tab)

Descontrolado
Jovenes Pordioseros

Letras, Notas, Punteos, Tablaturas y Acordes de Guitarra (Tabs & Chords)

  • Letra y Acordes
                 LA
    No me arrepiento
                          MI
    De haber venido hasta aca
                          FA#m RE
    De haber viajado una hora
                     MI
    Para volverte a ver
                LA
    Y si estoy solo
                      MI
    Voy escuchando tu voz
                        FA#m RE
    Puedo dejar muchas cosas
                    MI  
    Para volverte a ver
    RE               MI        
    Y cuando llega la noche
    FA#m            RE
    Me late el corazon
    
  • Letra y Acordes
                LA
    No me arrepiento
                          MI
    De haber venido hasta aca
                          FA#m RE
    De haber viajado una hora
                     MI
    Para volverte a veer
                LA
    Y si estoy solo
                      MI
    Voy escuchando tu voz
                        FA#m RE
    Puedo dejar muchas cosas
                    MI
    Para volverte a veer
    
    RE               MI    LA
    Y cuando llega la noche
    FA#m               RE
    
  • Letra y Acordes
              LA    LAsus4
     No me arrepiento
                          MI   MIsus4
    De haber venido hasta aca
                          FA#m *(Mi) RE
    De haber viajado una hora
                     MI
    Para volverte a ver
    
    
               LA      LAsus4
    Y si estoy solo
                      MI     MIsus4
    Voy escuchando tu voz
                        FA#m *(Mi) RE
    Puedo dejar muchas cosas
                    MI
    Para volverte a ver
    
    
    
  • Tablatura
                 LA + Riff1              LAsus4
    No me arrepiento                     Riff1           Riff2
                          MI          e|-3-3-3-(2)-|---4--4--5--7--5---|
    De haber venido hasta aca         B|-2-2-2-(2)-|--5----5--5--5--5--|
                          FA#m RE     G|-2-2-2-(2)-|-4------4--4--4--4-|
    De haber viajado una hora         D|-0-0-0-(0)-|-------------------|
                     Mi + Riff2       A|-----------|-------------------|
    Para volverte a ver               E|-----------|-------------------|
                LA
    Y si estoy solo
                      MI
    Voy escuchando tu voz
                        FA#m RE
    Puedo dejar muchas cosas
                    MI
    Para volverte a ver
                                                         Riff3
                                                      e|-------------|
    RE         MI                                     B|-------------|
    Y cuando llega la noche                           G|-------------|
    
  • Tablatura
    Estas son las cosas que tienen que tener en cuenta:
    
    s: Significa que tiene que deslisar (esto se utiliza mucho)
    ~: Significa que tienen que hacer bibrar la cuerda
    
    
    Este punteo es casi imposible de transcribirlo porque tiene muchas
    partes en donde no es posible escribirlo con numeros y letras
    En cuanto pueda mando un video a youtube asi se nota mejor.
    
    1)---------------------------------------------------------------
    2)---------------------------------------------------------------
    3)---------------------------------9v-7-6--7-6-------------------
    4)----------7-9s11-7~---9-7-9-7---7-----------9-7---9s11-9-------
    5)-------7-9----------------------------------------------12-11--
    6)---9-10--------------------------------------------------------
    
    1)------------------------------------------------
    2)------------------------------------------------
    3)-------------------------------------------6----
    4)-11------7----7s6----------7s6----------7-9-7---
    5)-9--9-7--5-------7-5-7-7------7------7s9-
  • Tablatura
    Estas son las cosas que tienen que tener en cuenta:
    
    s: Significa que tiene que deslisar (esto se utiliza mucho)
    ~: Significa que tienen que hacer bibrar la cuerda
    
    
    Este punteo es casi imposible de transcribirlo porque tiene muchas
    partes en donde no es posible escribirlo con numeros y letras
    En cuanto pueda mando un video a youtube asi se nota mejor.
    
    1)---------------------------------------------------
    2)---------------------------------------------------
    3)-------------------6-7-----------------------------
    4)------------6-7-9-------7--7s9-7-7s9-7-------------
    5)------7-9------------------------------------------
    6)---------------------------------------------------
    
    1)---------------------------------------------------
    2)---------------------------------------------------
    3)------9s11--9--7---6-7-6---------------------------
    4)---7-----------------------9-7---9s11-9---7-6------
    5)------------------------------------------------9--
    6)-----------------------------------------------
  • Tab p/Bajo
     Verso
    
      no mearrepiento   de haber venido...    de haber viajado..
    
    G|--------------------------------------------------|(Riff1)
    D|-----------------------------9-9----9-------------|
    A|---------------7-7----7-567-7-7-7--7-789----------|
    E|-----------5--5-5-5--5-5--------------------------|
      un hora pra volverte a ver        y si estoy...
    
    G|--------------------------------------------------|(Riff2)
    D|---11---------------9-9---9-----------------------|
    A|--9--9-7-5--5--457-7-7-7-7-7----------------------|
    E|-------------55-----------------------------------|
    
    
     solo voy escuchando tu voz|
     puedo dejar muchas cosas  |REPITE RIFFS 1 y 2
     para volverte a ver       |
    
       Y cuando llega la noche..
    
    G|--------------------------------|(Riff3)
    D|--------------------------------|
    A|--5----------7------------------|
    E|--------------------------5-----|
    
       Me late el corazón... y cuando llega esa noche
    
    G|--------2--------------------------------------|(Riff 4)
    D|-----2/4-4-2/4----------------
  • +
    ¡Colabora con nosotros!
    Envíanos tu versión de esta canción

Letra de Descontrolado
No me arrepiento
De haber venido hasta aca
De haber viajado una hora
Para volverte a ver
Y si estoy solo
Voy escuchando tu voz
Puedo dejar muchas cosas
Para volverte a ver
Y cuando llega la noche
Me late el corazon
Y cuando llega esta noche
Y te quiero no me preguntes porque
Puedo dejar muchas cosas
Para volverte a ver
Descontrolado yo no te quiero perder
Puedo dejar muchas cosas
Para volverte a ver
No me arrepiento
De haber venido hasta aca
De haber viajado una hora
Para volverte a ver
Yo no te miento
Siempre dije la verdad
Pueden pasarme mil cosas
Pero yo sigo igual
Y cuando llega la noche
Me late el corazon
Y cuando llega esta nocheee.



© LaCuerda.net · Aviso Legal · Privacidad
DINAMICO