Acordes de Guitarra » J »Jovenes Pordioseros » Nunca pude estar solo (Tab)

Nunca pude estar solo
Jovenes Pordioseros

Letras, Notas, Punteos, Tablaturas y Acordes de Guitarra (Tabs & Chords)

  • Letra y Acordes
    INTRO: RE-SIm
    
    RE               SIm
    SI ALGUN DÍA TE VUELVO A ENCONTRAR 
    RE               SIm
    VOY A DECIRTE QUE NO TE OLVIDE
    RE               SIm
    ALGUNOS TRAGOS REPLETOS DE ALCOHOL
    RE               SIm
    IR A BAILAR Y DESPUES A UN HOTEL
    
    LA                         SIm
    SABES QUE NUNCA PUDE ESTAR SOLO
    LA                         SIm
    SABES QUE NUNCA PUDE ESTAR SOLO
    
    SOL           LA   SOL       LA
    Y SI QUERES AHORA PODES PASARME A BUSCAR
    SOL            LA            SIm
    LOS DOMINGOS ENSAYO EN LO DE MARCE
    
  • Tablatura
    LA                         SIm
    SABES QUE NUNCA PUDE ESTAR SOLO
    LA                         SIm
    SABES QUE NUNCA PUDE ESTAR SOLO
    
    E -------------------------------------------|este arreglo lo hago casi en
    B -------------------------------------------| todo el tema
    G -----------------16--14--------------------| x2
    D -------------------------16----14--12------|
    A --12----15------------------------------14-|
    E -------------------------------------------|
    Este arreglo va en el estribillo
    SOL           LA   SOL       LA
    Y SI QUERES AHORA PODES PASARME A BUSCAR
    SOL            LA            SIm
    LOS DOMINGOS ENSAYO EN LO DE MARCE
    SOL           LA   SOL       LA
    Y SI QUERES AHORA PODES PASARME A BUSCAR
    SOL            LA            SIm
    LOS DOMINGOS ENSAYO EN DONDE SABES
    
  • Tab p/Bajo
    Intro (solo la guitarra)
    
    Entra el bajo y hace
    
    G|----------------------------
    D|--------9--7-----------------
    A|--------------9--7--9-7---5--
    E|-5...-7----------------------
    
    G|----------------------------------
    D|----------------------------------
    A|-------------------9--7--9-7---5--
    E|-5...---7-7-7-7-7-----------------
    
    Estribillo
    Y si queres ahora....
    G|---------------------------------------------
    D|---------------------------------7--5--------
    A|--------------------------------------7--5---
    E|-3--3-3--5--5-5---3--3-3--5--5-5-------------
    Los Domingos ensayo....
    G|-----------------------------------------------------------
    D|--------------------------------------9--7-----------------
    A|-------------------------------7---9-------9--7---9--7--5--
    E|-3--3-3--5--5-5---7-7-7--7--10-----------------------------
    Y si queres ahora...
    G|---------------------------------------------
    D|---------------------------------7--5--------
    A|--------------------------------------7--5---
    E|-3--3-3--5-
  • +
    ¡Colabora con nosotros!
    Envíanos tu versión de esta canción

Letra de Nunca pude estar solo
SI ALGUN DÍA TE VUELVO A ENCONTRAR
VOY A DECIRTE QUE NO TE OLVIDE
ALGUNOS TRAGOS REPLETOS DE ALCOHOL
IR A BAILAR Y DESPUES A UN HOTEL
SABES QUE NUNCA PUDE ESTAR SOLO
SABES QUE NUNCA PUDE ESTAR SOLO
Y SI QUERES AHORA PODES PASARME A BUSCAR
LOS DOMINGOS ENSAYO EN LO DE MARCE
Y SI QUERES AHORA PODES PASARME A BUSCAR
LOS DOMINGOS ENSAYO EN DONDE SABES
SI ALGUN DÍA TE VUELVO A ENCONTRAR
VAMOS A HABLAR DE LOS DIAS DE AYER
DE LOS ENSAYOS DEL PRIMER RECITAL
DE ESOS AMIGOS QUE YA NO ESTÁN
SABES QUE NUNCA PUDE ESTAR SOLO
SABES QUE NUNCA PUDE ESTAR SOLO
Y SI QUERES AHORA PODES PASARME A BUSCAR
LOS DOMINGOS ENSAYO EN LO DE MARCE
Y SI QUERES AHORA PODES PASARME A BUSCAR
LOS DOMINGOS ENSAYO EN DONDE SABES
SABES QUE NUNCA PUDE ESTAR SOLO
SABES QUE NUNCA PUDE ESTAR SOLO
Y ME LLORA EL CORAZON
AL SABER QUE YA NO ESTAS
CUANDO ESCRIBO CAMCIONES QUE HABLAN DE VOS
HABLAN DE VOS, HABLAN DE VOS, HABLAN DE VOS
ESTAN HABLANDO DE VOS!
final igual que la intro, aguante los jovenes Pordioseros
QUE MIRAS SI SOY ASÍ!
y que nos entierren en Wilde Señor



© LaCuerda.net · Aviso Legal · Privacidad
DINAMICO