Acordes de Guitarra » J »Jovenes Pordioseros » Pánico (Tab)
  • LA mayor
    Odio las mañanas, odio las ventanas
    LA mayor
    no me gustan las personas que no dicen la verdad.
    LA mayor
    Me muero por tus besos, y dártela en la boca
    LA mayor
    amo todo aquello que me pone a temblar.
    estribillo
    MI mayor                LA mayor
    Tengo mucho pánico en las noches,
    MI mayor                LA mayor
    tengo mucho pánico en las noches.
    
    LA mayor
    No confió en la gente que anda siempre sola
    LA mayor
    no me caben esos chetos que se sienten rockstar.
    LA mayor
    Odio las mañanas, odio las ventanas
    
  • e------------------------------------------------------
    B------------------------------------------------------
    G------------------2---2----------------2---2----------
    D--------2---------2---2-----5---4------2---2----------
    A--------2-------------------3---2---------------------
    E-------------3----------------------------------------
    
    LA 2da guitarra VA HACIENDO TODO “LA MAYOR” ARRIBA DE LAS
    ESTROFAS HASTA LLEGAR AL ESTRIBILLO ESTE ARREGLO LO HACE
    JUANJO ARRIBA DEL ACORDE "LA MAYOR"
    
    e--------------------------------------------------------
    B------------4--s-5----4--s-6-6------4--s-6------4--s-6*-
    G------------5--s-6----5--s-6-6------5--s-6------5--s-6*-
    D--------------------------------------------------------
    A--------------------------------------------------------
    E--------------------------------------------------------
    
    e--------------------------------------------------------
    B------------4--s-5----4--s-6-6------7---5---------------
    
  • +
    ¡Colabora con nosotros!
    Envíanos tu versión de esta canción

Letra de Pánico
Odio las mañanas, odio las ventanas
no me gustan las personas que no dicen la verdad.
Me muero por tus besos, y dártela en la boca
amo todo aquello que me pone a temblar.
estribillo
Tengo mucho pánico en las noches,
tengo mucho pánico en las noches.
No confió en la gente que anda siempre sola
no me caben esos chetos que se sienten rockstar.
Odio las mañanas, odio las ventanas
amo todo aquello que me pone a rockear.
estribillo
Tengo mucho pánico en las noches
tengo mucho pánico en las noches.
Odio las mañanas, odio las ventanas
no me gustan las personas que no dicen la verdad.
Me muero por tus besos, y dartela en la boca
y amo todo aquello que me pone a temblar.
estribillo
Tengo mucho pánico en las noches...




[Pánico chords][Pánico cifra]
© LaCuerda.net · aviso legal · privacidad · es · en · pt · contacto