Acordes de Guitarra » J »José Alfredo Jiménez » No volveré (Tab)

No volveré
José Alfredo Jiménez

Letras, Acordes y Tabs para Guitarra, Bajo y Ukulele

  •     MI              SI7        MI
    cuando lejos te encuentres de mi
                                    SI7
    cuando quieras que yo este con tigo
          LA                   MI
    no hallaras un recuerdo de mi
         SI7                   MI
    ni tendras mas amores con migo
                   SI7    MI
    yo te juro que no volvere
                 5LA            la
    aun que me hagas pedazo la vida
                              MI
    si una vez con locura te ame
               SI7             MI
    hoy de mi alma estaras despedida
     LA                                    MI
    no volvere te lo juro por dios que me miras
                             SI7       MI
    te lo digo llorando de rrabia no volvere
    
  • Intro   G  A7  D  A7  D
    
             D            A7       D
    Cuando lejos te encuentres de mí,
                                  A7
    cuando quieras que este yo contigo,
           G            A7      D
    no hallarás un recuerdo de mí,
            A7                 D
    ni tendrás más amores conmigo.
    
            D        A7      D
    Yo te juro que no volveré,
              D7                G
    aunque me haga pedazos la vida,
                      A7       D
    si una vez con locura te amé,
               A7                D      D7
    ya de mi alma estarás despedida.
    
    
  • E|-------------------------------------------|
    B|-----3-3-2-3-3-5-7--3-3-7-7--7-8-8-7-5-10--|
    G|-2-2---------------------------------------|
    D|-------------------------------------------|
    A|-------------------------------------------|
    E|-------------------------------------------|
    
    E|------------------------------------------------------|
    B|12-10-8-8-10-12-10-8-7--8-7-5-10-8-10-8-10-8-7-5-3----|
    G|------------------------------------------------------|
    D|------------------------------------------------------|
    A|------------------------------------------------------|
    E|------------------------------------------------------|
    
    E|--------------------------------------------------------------------|
    B|12-8-10-12-8-8-12-12-10-12-10-8-7-10--5-5-7-7-7-8-8-7-5-10-12-10-8-7|
    G|--------------------------------------------------------------------|
    D|--------------------------------------------------------------------|
    A|--------------------------------------------------------------------|
    E|------
  •   A                                   E
    |---0-0---0-0---0-0---0-0---0-0---------0-0---0-0---0-0---|
    |---2-2---2-2---2-2---2-2---2-2---------0-0---0-0---0-0---|
    |---2-2---2-2---2-2---2-2---2-2---------1-1---1-1---1-1---|
    |---2-2---2-2---2-2---2-2---2-2-----1---2-2---2-2---2-2---|
    |-0-----------0-----------0-----2-4---------2-------------|
    |-------0-----------0-----------------0-----------0-------|
    
            B                                   E
    |---0-----2-2---2-2---2-2---2-2---------------0-0---0-0---|
    |---0-----4-4---4-4---4-4---4-4---------------0-0---0-0---|
    |---1-----4-4---4-4---4-4---4-4---------------1-1---1-1---|
    |---2-----4-4---4-4---4-4---4-4---------------2-2---2-2---|
    |-------------2-----------2-------4-2-0-----------2-------|
    |-4---3-2-----------2-----------0-------4-2-0-------------|
    
    1er. Verso 00.20
           Cuando lejos te encuentres de mí      cuando quieras
      E
    |---0-0---0-0-----0----0-----0-0-------0--0----0-0---0-0--|
    
  • +
    ¡Colabora con nosotros!
    Envíanos tu versión de esta canción

Letra de No volveré
cuando lejos te encuentres de mi
cuando quieras que yo este con tigo
no hallaras un recuerdo de mi
ni tendras mas amores con migo
yo te juro que no volvere
aun que me hagas pedazo la vida
si una vez con locura te ame
hoy de mi alma estaras despedida
no volvere te lo juro por dios que me miras
te lo digo llorando de rrabia no volvere
no parare hasta ver que mi llanto ha formado
un arroyo de olvido adnegado
donde yo tu rrecuerdo ahogare
fuimos nubes que el viento aparto
fuimos piedras que siempre chocamos
gotas de agua que el sol rreseco
borracheras que no terminamos
en el tren de la ausencia me voy
mi boleto no tiene regreso
lo que tengas de mi te lo doy
pero no te devuelvo tus besos
pero no te devuelvo tus besos
pero no te devuelvo tus besossss




[No volveré chords][No volveré cifra]
© LaCuerda.net · aviso legal · privacidad · es · en · pt · contacto