Acordes de Guitarra » J »José Alfredo Jiménez » El Jinete (Tab)

El Jinete
José Alfredo Jiménez

Letras, Acordes y Tabs para Guitarra, Bajo y Ukulele

  •       Em            C                      B7
    E---------------------------------------------
    A-------------------3-----------------------2-
    D------2----------2---2--------------------1--
    G----0---0-----0--------0-----------------2---
    B---0------0-1------------1--0-1-0-3-1---0----
    e--0------------------------------------------
    
    Y ESTA ES LA CANCIÓN
    
    Em
    Por la lejana montaña
                       Am 
    Va cabalgando un jinete
                      Em 
    Vaga solito en el mundo
         B7          Em  
    y va buscando la muerte.
    Em
    Lleva en su pecho una herida
    
  •   LAm        FA      REm       E7   LAm    SOL    FA     E7            LAm
    E-----------------------------------------------------------------------0
    A-7---------------------------------------------------------------------0
    D-7---7---------3------0---2--------------------------------------3-2-0-2
    G-5--5--5------2-2-----2---2-----------------4------2----1--0-2-0-------2
    B-5-5----5----1---1--------------------1-----3------1-3-----------3-1-0-1
    e-5----------1-----1-0-1-0-3-1-0--0-5--0-1-3----0-1------o--0-1-0-------0
    
    LAm
    Por la lejana montaña
                       FA
    va cabalgando un jinete
                        LAm
    vaga solito en el mundo
          MI7             LAm
    y va deseando la muerte
    
    LAm
    Lleva en su pecho una herida
                         FA
    
  •       Em            C                      B7
    E---------------------------------------------
    A-------------------3-----------------------2-
    D------2----------2---2--------------------1--
    G----0---0-----0--------0-----------------2---
    B---0------0-1------------1--0-1-0-3-1---0----
    e--0------------------------------------------
    
    O Armonia:
    
           -   +  -   *   *  *  *   *(Lento)
    Intro: Em, C, B7, Em, D, C, B7, Em
    
     Em                                     C
    Por la lejana montaña va cabalgando un jinete
                       Em         B7
    vaga solito en el mundo y va deseando la muerte
    
     Em                                          C
    Lleva en su pecho una herida va con su alma destrozada
    
  • Instrucciones al final
    Am
    Por    la    le-ja-na   mon-ta-ña
    do     do    do do -Si  -La Do Do
    
                                        Dm
    va    ca--bal--gan--do____un    ji--ne--te,
    Do    Do  Do   Do     -Si      -La  Fa  Fa
    
                                        Am
    va--ga    so--li--to___en    el    mun--do
    Sol Fa    Fa  Sol    Fa      Fa    Sol  Mi
    
               E7                     Am
    y    va    de--sean--do    la    muer--te.
    -La  -La   Mi  -Si   Do    -Si    -Si  -La
    
    ----------------------------------------------
    Am
    Lle--va___en   su   pec--ho___una___he--ri--da
    do      do     do    Do   -Si    -La    Mi  Do
    
                                       Dm
    va    con    su al--ma   des--tro--za--da,
    Do     Do      Do   Do   -Si  -La  Fa  Fa
    
                                      Am
    qui--sie--ra    per--der    la    vi--da
    Fa   Sol  Fa     Fa  Sol    Fa    Sol Mi
    
               E7                       Am
    y    reu--nir--se    con   su____a--ma--da.
    -La  -La   Mi  -Si   Do       -Si  -Si  -La
    
    ----------
  • +
    ¡Colabora con nosotros!
    Envíanos tu versión de esta canción

Letra de El Jinete
Y ESTA ES LA CANCIÓN
Por la lejana montaña
Va cabalgando un jinete
Vaga solito en el mundo
y va buscando la muerte.
Lleva en su pecho una herida
Va con su alma destrozada
Quisiera perder la vida
Y reunirse con su amada.
La quería mas que a su vida
Y la perdió para siempre
Por eso lleva una herida
Por eso busca la muerte.
SE REPITE LOS MISMOS ACORDES
Por eso lleva una herida
Por eso busca la muerte,
Por eso lleva una herida
Por eso busca la muerte.




[El Jinete chords][El Jinete cifra]
© LaCuerda.net · aviso legal · privacidad · es · en · pt · contacto