Acordes de Guitarra » J »José Alfredo Jiménez » El Rey (Tab)

El Rey
José Alfredo Jiménez

Letras, Acordes y Tabs para Guitarra, Bajo y Ukulele

  • Intro       E   A
    
                           A
    Yo sé bien que estoy afuera,
    pero el día en que yo me muera,
                         E
    sé que tendrás que llorar,
    llorar y llorar, llorar y llorar.
    
    Dirás que no me quisiste,
    pero vas a estar muy triste,
                      A     A7
    y así te vas a quedar.
    
    CORO
           D
    Con dinero y sin dinero,
    hago siempre lo que quiero,
                        E
    y mi palabra es la ley.
    
  •                         A
    Yo se bien que estoy afuera
    
    pero el día que yo me muera
                    E7
    se que tendrás que llorar
    
    dirás que no me quisiste
    
    pero vas a estar muy triste
                      A
    y así te vas a quedar
          D
    Con dinero y sin dinero
    
    hago siempre lo que quiero
                       E7
    y mi palabra es la ley
    
    no tengo trono ni reyna
    
  • 1--0--3--0--3--0--0--3--0-------0--2--3--0--3--0--0--------
    2--2--5--2--5--2--2--5--2-------2--3--5--2--5--2--2--3--2--
    3----------------------------------------------------4--3--
    4----------------------------------------------------------
    5----------------------------------------------------------
    6----------------------------------------------------------
    
                               REM
    1--0--2--3--3--0--5--3--2--2--2--2--2
    2--2--3--5--5--2--7--5--3--3--3--3--3
    3--------------------------2--2--2--2
    4------------------------------------
    5-------------------------0----------
    6-------------------------------0----
    un saludo atodos los chavos de la bodega mark atletic bayy
  • +
    ¡Colabora con nosotros!
    Envíanos tu versión de esta canción
  • Tutorial
    HD
    Como tocar EL REY - ranchera mexicana en guitarra
    6:21
  • Tutorial
    Como tocar El Rey;How to play El Rey; Karma Guitar; Ranchera
    9:18

Letra de El Rey
Yo sé bien que estoy afuera,
pero el día en que yo me muera,
sé que tendrás que llorar,
llorar y llorar, llorar y llorar.
Dirás que no me quisiste,
pero vas a estar muy triste,
y así te vas a quedar.
Con dinero y sin dinero,
hago siempre lo que quiero,
y mi palabra es la ley.
No tengo trono ni reina,
ni nadie que me comprenda,
pero sigo siendo el rey.
Una piedra del camino,
me enseñó que mi destino,
era rodar y rodar,
rodar y rodar, rodar y rodar.
Después me dijo un arriero,
que no hay que llegar primero,
pero hay que saber llegar.




[El Rey chords][El Rey cifra]
© LaCuerda.net · aviso legal · privacidad · es · en · pt · contacto