Acordes de Guitarra » J »Joan Sebastian » Rima (Tab)

Rima
Joan Sebastian

Letras, Acordes y Tabs para Guitarra, Bajo y Ukulele

  •              A#               D#             F             A#
    e. -----------------------------------------------------------|
    B. -16b18r16-15~--16b18r16b18-16~--16h18b20-18~--16b18r16-15~-|
    G. -----------------------------------------------------------|
    D. -----------------------------------------------------------|
    A. -----------------------------------------------------------|
    E. -----------------------------------------------------------|
    
    (Acompañando al acordeón)
    
        A#                    D#                    F               A#
    e. ---------------------------------------------------------------------|
    B. -----------------------------------------x-x-------------6-----------|
    G. ---------------3-3-----------------3-3-3-x-x-------------5-----------|
    D. -------------3-3-3-------------3h5---1-1-x-x---------5h7-----------3-|
    A. -1-1-1-1-3h5-------5p3-6-6-6-6---------------8-8-8-8---------1-3h5---|
    E. ---------------------------------------------------------------------|
    *****esta parte suena mucho mejor si la tocas ahogando las cuerdas******
    
    
    
  • +
    ¡Colabora con nosotros!
    Envíanos tu versión de esta canción

Letra de Rima
(Acompañando al acordeón)
*****esta parte suena mucho mejor si la tocas ahogando las cuerdas******
(Verso)
Imagínate
mis botas vaqueras
tus tapetes persas
imagínate
mis manos callosas
y las tuyas tersas.
Ay, cómo que no rima
cómo que no rima
llena mi vida de tristeza
y me lastima.
Imagínate
hoy sueño con la fidelidad a diario
imagínate
el diablo probandose un escapulario.
Ay, cómo que no rima
cómo que no rima
llena mi vida de tristeza
y me lastima.
Pero rima tu mirada
con mi alma enamorada
y riman nuestros cuerpos al bailar.
Mira, rima tu mirada
con mi alma ilusionada
y riman nuestros labios al besar.
(Acompañando al acordeón)
(Verso)
Imagínate
tú de la ciudad y yo de un pueblo pobre
imagínate
mi orgullo esperando lo que a tí te sobre.
Ay como que no rima
como que no rima
llena mi vida de tristeza
y me lastima
Pero rima tu mirada
con mi alma enamorada
y riman nuestros cuerpos al bailar.
Mira, rima tu mirada
con mi alma ilusionada
y riman nuestros labios al besar.
Si que rima tu mirada
con mi alma enamorada
y riman nuestros cuerpos al bailar.
Mira, rima tu mirada
con mi alma ilusionada
y riman nuestros labios al besar.
Dudas o comentarios a mi correo: gerewalsh@gmail.com




[Rima chords][Rima cifra]
© LaCuerda.net · aviso legal · privacidad · es · en · pt · contacto
DINAMICO