Acordes de Guitarra » J »Joan Sebastian » Celia (Tab)
  • Letra y Acordes
    E                       
     Se que te acuerdas, Celia
             C#m  
    de tu columpio
               A
    el que colgabas
               B7
    de las estrellas.
    
    E 
     Sé que te acuerdas, Celia
               C#m
    de tu amor limpio
                A
    de días soleados
               B7   
    de noches bellas.
    
            E
    Y te aplaudo que te olvides
    
  • Tablatura
        E          C#m
    e-5-4----5-4--2-2-4-0--
    B-7-5--5-7-5--4-4-5-2--
    G------6---------------
    D----------------------
    A----------------------
    E----------------------
    
    e--9--9--9-11-12-12-11--11-11--9----------0--------
    B-10-10-10-12-14-14-12--12-12-10-10-----0---0------
    G--------------------------------11---1-------1----
    D-----------------------------------------------2--
    A-----------------------------------0--------------
    
    e-------4-------2-4-5-4---
    B-----5---5-----4-5-7-5---
    G---6-------6-------------
    D-------------6-----------
    A-4-----------------------
    E-------------------------
    
  • +
    ¡Colabora con nosotros!
    Envíanos tu versión de esta canción

Letra de Celia
Se que te acuerdas, Celia
de tu columpio
el que colgabas
de las estrellas.
Sé que te acuerdas, Celia
de tu amor limpio
de días soleados
de noches bellas.
Y te aplaudo que te olvides
de tantas cosas
pues la vida a tí te dió
más espinas que rosas.
Te celebro que de las penas
vivas ausente
bravo madre, déjame darte
un beso en la frente, ay Celia.
Sé que te acuerdas, Celia
aún de tus hijos
cuando me miran
tus ojos fijos.

Sé que te acuerdas, Celia
de tu rebozo
en que envolviste
a este mocoso.
Y mi boquita infantil
sobre tu seno
te aseguro nunca probó
un manjar más bueno, ay Celia.
Y cuando brillas, Celia
tos ojos parcos
se que te acuerdas
aún de Marcos.
Cuando traía tu hombre
de amor velices
sé que recuerdas
días felices.
Y te admiro que de lo malo
siempre te olvides
me imagino por qué a los cielos
por el aún pides, ay Celia.
A la vida le agradezco
y le haría un reclamo
si olvidaras un día, madre
cuánto te amo.
GRACIAS.



© LaCuerda.net · aviso legal · privacidad · contacto