Acordes de Guitarra » I »Inyectores » Ultima parada (Tab)

Ultima parada
Inyectores

  • Letra y Acordes
     Em
       /-0-/
       /-0-/
       /-0-/
       /-2-/
       /-2-/
       /-0-/
    
    
    INTRO
    
          ( D5 / A5 / B5 / G5 )------ X5
    
          ( G5 / F#5 / Em / D5 )
    
    
           D5          A5             B5                   G5
    Te vi salir volver aki, vivir corriendo no es mi idea de ser feliz
               D5             A5           B5                      G5
    me voy de aki te oi decir, seguir huyendo no es forma de verte vivir
    
  • Tablatura
             D5  A5    B5    G5  G5    F#5  E5 
    E  |---------------------------------------------------|
    B |---------------------------------------------------|
    G |---7---------------------12---11---9------------|
    D |---7----7-----9-----5---12---11---9------------|
    A |---5----7-----9-----5---10----9---7------------|
    E  |--------5-----7-----3----------------------------|
    
    
    INTRO:
    
    D5 muteado
    
    E  |--------------------------------------|
    B |-------5------5----5----5------5----|
    G |----------7------7----7-----7-----7-|
    D |------- -------------------------------|
    A |---------------------------------------|
    E |---------------------------------------|
    
    
  • +
    ¡Colabora con nosotros!
    Envíanos tu versión de esta canción

Letra de Ultima parada
/-0-/
/-0-/
/-0-/
/-2-/
/-2-/
/-0-/
( G5 / F#5 / Em / D5 )
Te vi salir volver aki, vivir corriendo no es mi idea de ser feliz
me voy de aki te oi decir, seguir huyendo no es forma de verte vivir
vuelves aka una vez mas, sigues pensando ke algun dia podras parar
sueñas crecer y no volver a caeeeeee....err
sin un lugar a donde ir , la calle se esconde de ti, la parada del bus no está
y tus amigos en la eskina se escapan de tu rutina y el bakan no te habla mas
llego el momento de tu vida para buscar la salida y no volver siempre detras
Si no kieres seguir, si no puedes vivir
( G5 / F#5 / Em / D5 )
La poka luz se volvio gris, el dia perfecto ke buscabas se alejo de ti
dificil es volver a unir, poner tu cuerpo y mente siempre en el mismo lugar
y ese secreto en tu interior, nadie lo oculto mejor
sueñas volver y no tener ke kaeeee......errr
sin un lugar a donde ir , la calle se esconde de ti, la parada del bus no está
y tus amigos en la eskina se escapan de tu rutina y el bakan no te habla mas
llego el momento de tu vida para buscar la salida y no volver siempre detras
Si no kieres seguir, si no puedes vivir
( G5 / F#5 / Em / D5 )



© LaCuerda.net · aviso legal · privacidad · contacto