Acordes de Guitarra » I »Inyectores » Soñador (Tab)

Soñador
Inyectores

Letras, Acordes y Tabs para Guitarra, Bajo y Ukulele

  • G5        D5
    Descanso sobre mi cabeza
    E5       B5
    intento ver a traves de esta niebla,
    C5    G5       D5
    mis ideas se escapan.
    
    Dormido sobre un suave lienzo
    escrito con todos mis sueños,
    cegado por mi libertad.
    
    CORO
    C5   D5
    Hey! soñador despierta 
    E5     B5          C5    D5        G5
    mira la realidad, nadie construira tu hermosa vida.
    Hey! soñador despierta
    vive tu miseria, nadie salvara tu triste dia.
    
    VERSO
    
  • Hola de nuevo gente, este es el punteo de soñador,
    aunque es un toque simple, suena bien, difrutenla!!
    
    Solo:
    
    |---------------------------------------------|
    |-8----7-8---7-8---7-8---7-8---7-8-----7-8----|
    |---9-----9------9-----9-----9------9---------|
    |---------------------------------------------|
    |---------------------------------------------|
    |---------------------------------------------|
    
    |---------------------------------------------|
    |-8----7-8---7-8---7-8---7-8---7-8-----7------|
    |---9-----9------9-----9-----9------9-----8---|
    |---------------------------------------------|
    |---------------------------------------------|
    |---------------------------------------------|
    
    
    Solo 2:
    
    |---------------------------------------------|
    |---------------------------------------------|
    |---------------------------------------------|
    |---------------------------------------------|
    |------2-3-2--------2-3-2--------2-3-2/5-4----|
    |-0--3---------0--3---------0--3-
  • +
    ¡Colabora con nosotros!
    Envíanos tu versión de esta canción

Letra de Soñador
Descanso sobre mi cabeza
intento ver a traves de esta niebla,
mis ideas se escapan.
Dormido sobre un suave lienzo
escrito con todos mis sueños,
cegado por mi libertad.
Hey! soñador despierta
mira la realidad, nadie construira tu hermosa vida.
Hey! soñador despierta
vive tu miseria, nadie salvara tu triste dia.
VERSO
No digas que se esta acabando
hasta que lo haya probado,
no digas mas, nada mas.
Ilumino una idea
escondida atras de mi mente,
camino junto a los demas.
Mirando las mismas personas
descubriendo las mismas cosas,
que crei haber perdido ya.
Y veo que entodos mis sueños
la suerte nunca estuvo en ellos,
he perdido mi libertad
Hay un niño que ha nacido
hay un mostro que ha crecido,
cual de los dos sere al final.
Hay un dia que no termina
y hay un sueño que no avecina,
amigo ayudame a escapar.
VERSO:
Descanso sobre mi cabeza
intento ver a traves de esta niebla,
mis ideas se escapan.
Dormido sobre un suave lienzo
escrito con todos mis sueños,
cegado por mi ideal.
FIN(SOLO)




[Soñador chords][Soñador cifra]
© LaCuerda.net · aviso legal · privacidad · es · en · pt · contacto