Acordes de Guitarra » I »Inyectores » En un rincón (Tab)

En un rincón
Inyectores

Letras, Acordes y Tabs para Guitarra, Bajo y Ukulele

  • G5           D5       E5           C5
    hoy saliste a buscar la esperanza perdida
    G5            B5         C5        D5
    solo hallaste una herida enterrada en tu historia
    G5           D5       E5           C5
    y en el mismo lugar gritan los mil recuerdos
    G5            B5         C5        D5
    de una vida que brilla y me dice no me dejes  aca
    
    ( CoRo )
    B5           E5    C5     G5     D5
    tirado en un rincon te vi pensando
    B5           E5    C5     G5     D5
    manteniendo el control te oi llorando
    B5           E5                       C5
    reconociendo al fin solo tu podras salir de ahi
    
    (G5           D5       E5           C5 )
    
    ( 2 )
    
  • G           D       E           C
    hoy saliste a buscar la esperanza perdida
    G            Bm         E                C D
    solo hallaste una herida enterrada en tu historia
    G           D       E           C
    y en el mismo lugar gritan los mil recuerdos
    G            Bm                E          C   D
    de una vida que brilla y me dice no me dejes  aca
    
    ( CoRo )
    Bm           E    C        G   D
    tirado en un rincon te vi pensando
    Bm           E    C         G  D
    manteniendo el control te oi llorando
    Bm           E                       C
    reconociendo al fin solo tu podras salir de ahi
    
    (G   D    E   C )
    
    ( 2 )
    
  • 
    Hola gente acá les traigo los solos de esta súper canción.
    Los acordes lo pueden encontrar en la otra tablatura.
    
     * --> significa que se toca la nota varias veces (escuchan la canción y se dan cuenta)  
     / --> significa ´slide´ o arrastre 
    
    
    Solo 1:
    
    e-----------------------------------------------------------------
    B-----------------------------------------------------------------
    G-12*--11*---12*--9*---12--12/14--14/16--16-17--16-17-16--17-16---
    D-----------------------------------------------------------------
    A-----------------------------------------------------------------
    E-----------------------------------------------------------------
    
    Solo 2:
    
    e------------------------------------------------------------
    B------------------------------------------------------------
    G----------------------------------------7-------------------
    D---------------5--5-7-9-7-5-7-5---5-7-9---9-7-5-------------
    A---5-5-7-5---7--7--------------------------------------
  • |----------------------------|
    |----------------------------|
    |----------------------------|
    |----------------------------|
    |--10-10-10-10-10b-10-10-10--|x 2
    |----------------------------|
    
       G5 D5   E5 C5     G5 B5      E5       C5
    |----------------------------------------------|
    |----------------------------------------------|
    |--12-11---12-11-9---12-11/9/7/9/11/9-9--11/9--|
    |--xx--x---xx--x-x---xx--x-x-x-x--x-x-x---x-x--|
    |--10--9---10--9-7---10--9/7/5/7/-9/7-7---9/7--|
    |----------------------------------------------|
    
    
    *verso (todo esto x 2)
    G5 D5 E5 C5
    G5 B5 E5 C5
    
    
  • Hola gente esta es mi primera cancion k subo es solo los intros y el
    solo, luego pondre los acordes pero se pueden ayudar en la otra
    tablatura.
    
     * --> significa que se toca la nota varias veces (escuchen la canción
           y se dan cuenta).
     / --> significa "slide" o arrastre.
    
    
    Intro 1:
    
    e------------------------------------------------------------
    B------------------------------------------------------------
    G------------------------------------------------------------
    D-5*-4*-5*-2*-5*-4-2-0-2-4-2--4-2----------------------------
    A------------------------------------------------------------
    E------------------------------------------------------------
    
    Intro 2:
    
    e------------------------------------------------------------
    B------------------------------------------------------------
    G------------------------------------------------------------
    D-5*-4*-5*-2*-5*/999-10-9--10-9-10-9--10-9-------------------
    A------------------------------------------------------------
    E---------
  • +
    ¡Colabora con nosotros!
    Envíanos tu versión de esta canción

Letra de En un rincón
hoy saliste a buscar la esperanza perdida
y en el mismo lugar gritan los mil recuerdos
de una vida que brilla y me dice no me dejes aca
( CoRo )
tirado en un rincon te vi pensando
manteniendo el control te oi llorando
reconociendo al fin solo tu podras salir de ahi
( 2 )
volvi te oi decir, la vida no es segura
olvide sentimientos en lugar en el que no te vi
y sin poder reir, con un destino incierto
te encerraste en reflejos que no eras tu
( CoRo )
tirado en un rincon te vi pensando
manteniendo el control te oi llorando
reconociendo al fin solo tu podras salirde ahi
dejabas la nostalgia,tragabas la alegria
pensaste que tu herida al fin sano
volviste a dar tu vida te dieron mas mentira
sin consideracion ni una razon
( 1 )
En saludo pa toda la gente de la UrP !!
*MaNu* - *FonSi*




[En un rincón chords][En un rincón cifra]
© LaCuerda.net · aviso legal · privacidad · es · en · pt · contacto