Acordes de Guitarra » I »Inyectores » Bombardero (Tab)

Bombardero
Inyectores

Letras, Acordes y Tabs para Guitarra, Bajo y Ukulele

  • A5 - G5 - A5 - F5 - D5
    
    VERSO 1: 
    A5 - G5 - A5 - F5 - D5
    DESPEGA BOMBARDERO
    VUELA SOBRE EL MIEDO DE TU CORAZON
    Y CUANDO ESTES SURCANDO EL CIELO
    DESCARGA FURIOSO TODO TU INTERIOR
    Y VAMOS VUELA BOMBARDERO
    NO IMPORTA LAS HERIDAS
    Y YA NO HAY COMPASION
    Y CUANDO ESTES SOLO EN EL CIELO
    MIRA CON DESPRECIO TODO LO QUE PASO
    
    CORO:
    G5                  F5      Em
    Y AHORA VEO CON TRANQUILIDAD 
    G5                F5         Em
    YA NO TEMO SER LO QUE SIGNIFICA AMAR
    G5                  F5     Em
    
  • LA CUERDA (slide).
    
    INTRO:
    A5/G5/A5-F5-C5-D5
    
    A5   /  G5  / A5 - F5 - C5 - D5
    DESPEGA BOMBARDERO 
    A5   /  G5  / A5 - F5 - C5 - D5
    VUELA SOBRE EL MIEDO DE TU CORAZON
    A5   /  G5  / A5 - F5 - C5 - D5
    Y CUANDO ESTES SURCANDO EL CIELO
    A5   /  G5  / A5 - F5 - C5 - D5
    DESCARGA FURIOSO TODO TU INTERIOR
    A5   /  G5  / A5 - F5 - C5 - D5
    VAMOS VUELA BOMBARDERO
    A5   /    G5  /  A5   -   F5  -  C5    -  D5
    NO IMPORTA LOS HERIDOS SI YA NO HAY COMPASION
    A5   /  G5  / A5 - F5 - C5 - D5
    Y CUANDO ESTES SOLO EN EL CIELO
    A5   /  G5  / A5 - F5 - C5 - D5
    
  • Inyectores
    Bombardero
    
    Hola gente aca les mando el solo de la cancion Bombardero, lo
    saqué porq era un pedido. Los acordes los consiguen de otro tab
    
    Solo:
    
    e-------------------3-3-5b---------------------3-3-5b-----------
    B-5b-5b-3b-3b-5b-5b----------5b-5b-3b-3b-5b-5b------------------
    G---------------------------------------------------------------
    D---------------------------------------------------------------
    A---------------------------------------------------------------
    E---------------------------------------------------------------
    
    
    e-----------------------------------------------------------------------------
    B---------------5--------------5b-5b-5b-5b------------------------------------
    G-----5--5--5--5--7p5-7-5-------------------------------5-4---------------5-4-
    D-5h7--7--7--7-----------7p5-----------------7-7-5-5-7-7-------7-7-5-5-7-7----
    A-----------------------------------------------------------------------------
    E-------------------------------
  • Intro/Verso1 y 3/y solo
    
    |----------------------------
    |----------------------------
    |------------------3-5-5-----
    |-5-5-5-3-5-5--1-1-----------
    
    
    Coro
                                                  *
    |--------7h9p7------------------------|-----------------|
    |----9---------9---7-9----10---10-----|-----------------|
    |-10--------------------8--------8-7--|--7--7---7-9s11--| 3 veces
    |-------------------------------------|---8-------------|
    
           *
    |--------------
    |-----5-------- 4ta vez
    |-5h7---7-5-3--
    |--------------
    
    
    Verso 2
    
    |--------------------------------      |---------------------------
    |---------------------2-3-2------ (1)  |---------------------------  (2)
    |-----------------3-5--------5-3-      |--------------------3-5-5--
    |-5-5-5-3-5-5--1-----------------      |-5-5-5-3-5-5--1--1---------
    
    
    |--------------------------------      |---------------------------
    |-------------------2------------ (3)  |---------------------------  (4)
    |-----------------3------3s5s3---      |-------
  • +
    ¡Colabora con nosotros!
    Envíanos tu versión de esta canción

Letra de Bombardero
VERSO 1:
DESPEGA BOMBARDERO
VUELA SOBRE EL MIEDO DE TU CORAZON
Y CUANDO ESTES SURCANDO EL CIELO
DESCARGA FURIOSO TODO TU INTERIOR
Y VAMOS VUELA BOMBARDERO
NO IMPORTA LAS HERIDAS
Y YA NO HAY COMPASION
Y CUANDO ESTES SOLO EN EL CIELO
MIRA CON DESPRECIO TODO LO QUE PASO
Y AHORA VEO CON TRANQUILIDAD
YA NO TEMO SER LO QUE SIGNIFICA AMAR
Y AHORA SIENTO LA NECESIDAD
DE VOLAR DE AQUI Y NO VERTE NUNCA MAS.
VERSO 2:
SUBE BOMBARDERO
CARGADO DE ENERGIA Y DE INFELICIDAD
Y CUANDO ESTES ENCIMA DE ELLOS
LANZALES SUS VIDAS Y ENSEÑA TU MALDAD
Y AHORA VUELVE MAS FURIOSO
DESTRUYE LO PRECIOSO QUE ALGUN DIA TE IMPORTO
Y CUANDO ESTES DE VUELTA EN CASA
MIRA LAS HERIDAS QUE EL TIEMPO TE DEJO.
Y AHORA VEO CON TRANQUILIDAD
YA NO TEMO SER LO QUE SIGNIFICA ODIAR
Y AHORA SIENTO LA NECESIDAD
DE VOLAR DE AQUI Y NO VERTE NUNCA MAS.
REPETIR VERSO 1
Y AHORA VEO CON TRANQUILIDAD
YA NO TEMO SER LO QUE SIGNIFICA AMAR
Y AHORA SIENTO LA NECESIDAD
DE VOLAR DE AQUI LEJOS DE ESTE LUGAR
Y AHORA VEO CON TRANQUILIDAD
YA NO TEMO SER LO QUE SIGNIFICA AMAR
Y AHORA SIENTO LA NECESIDAD
DE VOLAR DE AQUI Y NO VERTE NUNCA MAS.
JUM.....
PEPIÑO , PEPIÑO




[Bombardero chords][Bombardero cifra]
© LaCuerda.net · aviso legal · privacidad · es · en · pt · contacto