Acordes de Guitarra » I »Indio Solari » Y mientras tanto el sol se muere (Tab)

Y mientras tanto el sol se muere
Indio Solari

Letras, Acordes y Tabs para Guitarra, Bajo y Ukulele

  • Bm-D / G-F#  X 4
    
    Bm        D   A       F#7
      Todavía no usé mi milagro de hoy
    Bm                 D          A   F#7
      (que corta es la vida, mi amor!)
    Bm             D       A        F#7
      No voy a buscar mas consuelos tontos
    Bm            D          A
      si pasa algo malo esta vez.
      F#7       Bm - D / G       F#      Bm - D / G - F#
    Te voy a buscar          en la oscuridad
    
    
    Bm               D       A          F#7
       Yo no sé si pueda volver a encontrarte, amor
    Bm                 D          A      F#7
       si Dios no me quiere en tu eternidad
    Bm                D          A        F#7
      Sueño con que duermo, no lleno mi tumba aún
    
  • E|-------------|-------------|--------------------------|
    B|-------------|-------------|--------------------------|
    G|---11/12/11--|---7/9/7-----|------------------9/7-----|
    D|-------------|-------------|---4/5/7/9/12/11-------9--|
    A|---9/10/9----|---5/7/5-----|------------------7/5-----|
    E|-------------|-------------|---2/3/5/7/10/9--------7--|
    
    E|-------------|-------------|-------------------------|
    B|-------------|-------------|-------------------------|
    G|---11/12/11--|---7/9/7-----|---------------7/6-------|
    D|-------------|-------------|---4/5/7/9/8/4-------9---|
    A|---9/10/9----|---5/7/5-----|---------------5/4-------|
    E|-------------|-------------|---2/3/5/7/6/2-------7---|
    
    
    
    SIm    RE  DO#m     FA#m
    Todavía no use mi milagro de hoy
    SIm            RE       DO#m       FA#m
    Que corta es la vida, mi amor
    
  •    SIm     RE      SOL    FA#     SIm     RE      SOL    FA#
    1/---------------------------------------------------------------/
    2/---7-8-7--------------------------7-8-7------------------------/
    3/---------7-9-7----------7-6-9-7---------7-9-7--------------7-6-/ x2
    4/-9------------------7-9---------9------------------7-9-8-------/
    5/---------------9-10---------------------------9-10-------9-----/
    6/---------------------------------------------------------------/
    
    Para las estrofas se puede usar esto o seguir los acordes
    
    Estrofa 1:
    1/------------------------/
    2/------------------------/
    3/--------------2---------/
    4/----------------4-------/
    5/-2-5-4----2-5-------5-4-/
    6/--------5---------2-----/
    
    Bm        D   A       F#7
      Todavía no usé mi milagro de hoy
    
  • +
    ¡Colabora con nosotros!
    Envíanos tu versión de esta canción

Letra de Y mientras tanto el sol se muere
Todavía no usé mi milagro de hoy
(que corta es la vida, mi amor!)
No voy a buscar mas consuelos tontos
si pasa algo malo esta vez.
Te voy a buscar en la oscuridad
Yo no sé si pueda volver a encontrarte, amor
si Dios no me quiere en tu eternidad
Sueño con que duermo, no lleno mi tumba aún
y un poquito tarde ésta vez se va a hacer…
Y mientras tanto el sol se muere
y no parece importar-nos…
Mientras te quiero el sol se apaga
y si Dios queda en nada o no existe
te amaré mucho más.
Te voy a encontrar
en la oscuridad
Algún día, pronto, una de mis vidas
va a intentar matarme y lo vá a lograr
Cómo será andar solito allá en la muerte?
Ay! mi amor…ya sin vos…sin tu sue-ño…
Yo no sabría echarte de menos
(soy un ladrón que robó dolor)
y si te pierdo camino a casa
ya te dije esto antes…linda mía
te voy a encontrar
te voy a buscar
y te voy a encontrar…
EH EH EH!
Te buscaré...
y te encontraré...
tenrmina en fade con Bm - D / G - F#
cualquier duda me consultan! saludos!
andrEs




[Y mientras tanto el sol se muere chords][Y mientras tanto el sol se muere cifra]
© LaCuerda.net · aviso legal · privacidad · es · en · pt · contacto