Acordes de Guitarra » I »Indio Solari » La Oscuridad (Tab)

La Oscuridad
Indio Solari

Letras, Acordes y Tabs para Guitarra, Bajo y Ukulele

  • (Riff)     E  ---0-3-0---   (6ta cuerda)
    (riff2)    G --0-3-2-0-   (3ra cuerda)
    D9      xx032x
    
    (Riff)        Am
    Me acerco a vos...
    Em                     Am
    Pedis que no mire hacia atrás.
    Em              Am
    El equipaje pesará
              G         D9
    menos que la ultima vez.
    
    (riff)   Am
    Ni se quejó
    Em                    Am
    Yo hice lo que vine a hacer.
    Em                   Am
    En busca de su sombra fui
              G         D9
    
  • e--------------------------------------------------------
    B-----13-p12---------------------------------------------
    G----------------14---12--14--12-------------------------
    D----------------------------------------12---14---------
    A--------------------------------------------------------
    E--------------------------------------------------------
    
    e---------------------------------------------------------
    B---------------------------------------------------------
    G---------------------------------------------------------
    D----14-p12----------------------------------------------
    A----------------15---14---15---14-----10---------------
    E---------------------------------------------------------
    
    e--12---12---12----------------------------------------------------------
    B------------------13--13--13--13--13----15--15--15----12--12--12--------
    G------------------------------------------------------------------12—12-
    D------------------------------------------------------------------------
    A------------------------------------------------------------------------
    E------------------------------------------------------------------------
    
  • +
    ¡Colabora con nosotros!
    Envíanos tu versión de esta canción
  • Tutorial
    HD
    la oscuridad-INDIO SOLARI- solos de GUITARRA con TABLATURA
    1:10

Letra de La Oscuridad
Me acerco a vos...
Pedis que no mire hacia atrás.
El equipaje pesará
menos que la ultima vez.
Ni se quejó
Yo hice lo que vine a hacer.
En busca de su sombra fui
(me cobre sin piedad)
La oscuridad
cubre toda la ciudad.
Vos fuiste la derrota que
mi alma no soportó.
Ya estan aquí, los vi.
Fantasmas de juventud.
Llegan para despedirse de mi.
Yo sé, dejé
jirones de mi vida aqui.
Mi cautelosa libertad, mi risa infiel.
Habra después ?
A todo vos te resignás.
Alguna recaída y poco que recordar.
Qué tonto fui!
La vida se empobrece así.
Perdí todo lo que antes fui
Truena un cielo sin luz.
Ya estan aquí, los vi.
Fantasmas de juventud.
Llegan para despedirse de mi.
Visiten mi canal de youtube, hay mas temas de Los Redondos, y del Indio
https://www.youtube.com/channel/UCYe_taA5Gp4VeNwsXQAe9mA?view_as=subscriber




[La Oscuridad chords][La Oscuridad cifra]
© LaCuerda.net · aviso legal · privacidad · es · en · pt · contacto
DINAMICO