Acordes de Guitarra » I »Indio Solari » Flight 956 (Tab)

Flight 956
Indio Solari

Letras, Notas, Punteos, Tablaturas y Acordes de Guitarra (Tabs & Chords)

  • Letra y Acordes
    Intro: C5-(C-F)8 veces.
    
       C    F          C      F
         Parece que en el final
       C            F         C        F
         No me saldré con la mía, mi amor
       C       F        C        F     C
        (debería chequear mi contestador)
    
         Flight 956...voy a extrañar
        (tu belleza es como un resplandor!)
    
         Estoy tan cansado
         que no tengo fuerzas para discutir
         es tan triste ésta vez...que no puedo hablar
    
         Flight 956...el tiempo dirá
         yo sé que vos vas a regresar!
    
        F         Em               Am
    
  • Tablatura
    Guitarra 1:   C5 - D5
    
    
    Guitarra 2:
    
    E -------3---3-5-3-5-3---------
    B -5-3-5----------------5------
    G -----------------------------
    D -----------------------------
    A -----------------------------
    E -----------------------------
    
    
    Guitarra 3:
    
    e ------------------------------------------------
    B ------------------------------------------------
    G ------------------------------------------------
    D ------------------------------------------------
    A -3-5-7-8/10-8/7/5-3-5-7-----3-5-7-8/10-8/7/5-7-3
    
  • Tablatura
    Guitarra 1:   C5 - D5
    
    
    Guitarra 2:
    
    E -------3---3-5-3-5-3---------
    B -5-3-5----------------5------
    G --------------------------5--
    D -----------------------------
    A -----------------------------
    E -----------------------------
    
    
    Guitarra 3:
    
    e ----------------------------------------------------
    B ----------------------------------------------------
    G -5/7/9/10/12/10/9/7-5/7/9-----5/7/9/10/12/10-9---9--
    D ----------------------------------------------------
    A -3/5/7/8//10/8//7/5-3/5/7-----3/5/7/8//10/8--7---7--
    
  • +
    ¡Colabora con nosotros!
    Envíanos tu versión de esta canción

Letra de Flight 956
Parece que en el final
No me saldré con la mía, mi amor
(debería chequear mi contestador)
Flight 956...voy a extrañar
(tu belleza es como un resplandor!)
Estoy tan cansado
que no tengo fuerzas para discutir
es tan triste ésta vez...que no puedo hablar
Flight 956...el tiempo dirá
yo sé que vos vas a regresar!
Disculpá mis actos de hampón
Siempre hay quilombito en un cielo de dos
y nunca hay terreno sagrado, amor
Es difícil no ser injusto con vos...
Cuando escapas en tu…
Flight 956, intento reír
Dios no está en los detalles de hoy!
Será un melodrama vulgar?
Pasados dos meses nos consolarán?
Llorarás con un ojo
y con el otro te reirás
Flight 956...voy a extrañar
(tu belleza es como un resplandor!)
(GRACIAS AL APORTE DE JORGE HUARTE QUE ME AYUDO PARA MEJORAR EL TAMA)

Videos de Flight 956
[ver más videos]

[ver todas las canciones]


© LaCuerda.net · Aviso Legal · Privacidad