Acordes de Guitarra » I »Indio Solari » Pabellón Séptimo (Tab)

Pabellón Séptimo
Indio Solari

Letras, Acordes y Tabs para Guitarra, Bajo y Ukulele

  • Intro: D#
    
           A#m G# A#m G#  (x2)
    
           F#
    
           A#m G# A#m G#  (X2)
    
    
    D#
    Me asfixio! Dios!
    D#
    Pienso en mi cara..
    A#m           G#
    se está quemando,
    A#m
    ahora, mi cara... Dios!
    
    
    D#
    
  • Intro  D9  D7/E  D9  D7/E   Am   Em/C
    
    D9      D7/E        D9         D7/E
    Me asfixio! Dios! pienso en mi cara..
    Am                 Em/C               Am
    se está quemando, ahora, mi cara  Dios!
    D9      D7/E        D9         D7/E
    Una explosión y los colchones
    Am                 Em/C               Am
    se prenden fuego y nos quemamos vivos...
    
    Quiero salir, quiero escapar,
    las puertas siguen encerrojadas
    El pabellón... en un segundo
    se nubló todo y ya no vemos nada más...
    
    Fmaj7
    Pruebo trepar hasta un ventanal
    Am                    A9      Am
    buscando el aire y me balean fiero
    
  • 1|---------------------------------------------------------6--10-10v-
    2|-11-10-8----8-X2--------------------------88-88p6-6/8-6/8-6-11-11v-
    3|---------10------7-8-7h8p7---7-8-7h8p8-10--------8-----------------
    4|--------------------------8-----------8---------------------------
    5|---------------------------8----------------------------
    6|--------------------------------------------------------
    
    1|---------------------------------------------------------13b15-13-11-10------
    2|-6-4-3v----11-13-13b15-13b15-15br13p11--11-----------------------------13-11-
    3|7-5--3v--12----------------------------12---12-10-12-15v---------------------
    4|-----------------------------------------------------15v---------------------
    5|-----------------------------------------------------------------
    6|------------------------------------------------------------------
    
    1|-13p10-11p10----------------10-10-10-10-10-10-13-13-13-13-13-18-18-18-18-
    2|------------13p11--11---X3--11-11-11-11-11-11-11-11-11-11-11-18-18-18-18-
    3|-----------------12-----------------------------------------------------
    4|------------------------------------------------------------------------
    5|------------------------------------------------------------------------
    6|------------------------------------------------------------------------
    
  • +
    ¡Colabora con nosotros!
    Envíanos tu versión de esta canción

Letra de Pabellón Séptimo
Me asfixio! Dios!
Pienso en mi cara..
se está quemando,
ahora, mi cara... Dios!
Una explosión
y los colchones
se prenden fuego y nos
quemamos vivos...
Quiero salir,
quiero escapar,
las puertas siguen en-
-cerrojadas
El pabellón...
en un segundo
se nubló todo y ya
no vemos nada más...
Pruebo trepar
hasta un ventanal
buscando el aire y me
balean fiero
Viejita, amor,
hijas y amigas,
buscan noticias en la
puerta, ahí fuera...
Tiempo después,
escucho aún
el ruiido loco
de los paloteros
Buscan así
baldosas flojas
donde escondemos teso
ro y miserias
Pobrecito!...
pobre "el Cebolla",
no pudo más
Se degolló por miedo
Nadie es capaz
(no pueden borrar mis recuerdos!)
Nadie es capaz de
matarte en mi alma
Y así te dan!
Así te quiebran!
Así te dan por
culo allí... sin más
Por esa vez
la vieja cosechera Vino
por mí y no quiso
besar mi vida
Estoy herido,
estoy quemado
Voy en camila por el
Salaberry
Voy a tratar
de hacer conducta aquí
Para rajar antes
que mis pulmones
Si va a pasar
algo conmigo
Quiero que sea en
libertad... allá afuera!
Y nada más!
irme y nada más!
No quiero ver más gruesa
de llavero
Ni mirar la pared
si el pasarela grita
Para tapar quejidos
y lamentos
Ya nunca más!
Ya nunca más!
F#(corta)
Y nunca ya voy a olvidarte, Pablo...
nunca!




[Pabellón Séptimo chords][Pabellón Séptimo cifra]
© LaCuerda.net · aviso legal · privacidad · es · en · pt · contacto