Acordes de Guitarra » H »Hillsong United » Follow the son (Tab)

Follow the son
Hillsong United

Letras, Acordes y Tabs para Guitarra, Bajo y Ukulele

  • C#m  E  B  C#m  E  B
    C#m  E  B  C#m  E  B
    
           C#m
    Eres la luz
      E        B
    Que guía mi andar
         C#m
    Mi caminar
         E        B
    Me llevará hacia el Rey
    C#m
    Y la creación
            E       B    C#m E B
    Se postrará ante ti
    
    VERSO 2
      C#m
    Eres el Dios
    E        B
    
  • ¡Estos son las etiquetas para varias partes de Siguen al Hijo,
    del álbum de Hillsong Poderoso Ahorran!
    Tabbed Por: ¡Jeremy Esta canción es GUITARRA CONDUCIDA!
    ¡Nigel (el guitarrista de plomo(ventajoso) de Hillsong) usa una mezcla
    de efectos,
    pero usted puede arreglarse simplemente la distorsión
    y el retraso, alcanzar un efecto similar!
    Después de la mirada del taller de guitarra de Nigel,
    estos son lo que he entendido(calculado).
    
    ¡El solo para el VERSO INTRO/(Esta parte es difícil!)
    ' Distorsión Pesada y Retraso '
    e|-9---7---9---10---9-----9-7----------------------------|
    b|---9---8---9----9---9-------8--------------------------|
    g|----------------------9-------9------------------------|
    D|-------------------------------------------------------|
    A|-------------------------------------------------------|
    E|-------------------------------------------------------|
    
    TIMON la Segunda Parte de Guitarra de KLEIN para el VERSO INTRO/
    (Esto comienza la canción
    y es jugado los versos
  • Intro/Verso:
    
    G|---------------------------------
    D|---------------------------------
    A|-7-7-5-5-7-7-0-0---------5-5-5-5-
    E|-----------------3-3-3-3---------
    
       ------------------------------------------|
       ------------------------------------------|
       -7-7-5-5-7-7-0-0---------5-5-5-5----------|
       -----------------3-3-3-3------------------|
    
    
    
    G|-------------------------
    D|-------------------------
    A|-7-7-5-5-7-7-0-0---------
    E|-----------------3-3-3-3-
    
       --------------------------------------------------|
       -------------------------5-5-5-5------------------|
       5-5-5-5--7-7-5-5-7-7-0-0---------5-5-5-5----------|
       --------------------------------------------------|
    
    
    Pre-Coro:
    
    G|----------------------------------|
    D|----------------------------------|
    A|-----------------5-5-5-5-7777777--|
    E|-5-5-5-5-3-3-3-3------------------|
    
    Coro:
    
    G|-------------------------------------
    D|-------------------------------------
    A|-33333333----------55555555-77775555-
    E|----------33333333----
  • +
    ¡Colabora con nosotros!
    Envíanos tu versión de esta canción

Letra de Follow the son
Eres la luz
Que guía mi andar
Mi caminar
Me llevará hacia el Rey
Y la creación
Se postrará ante ti
VERSO 2
Eres el Dios
Que vino a darnos
La salvación
Te diste por mí
Y la creación
Se postrará ante ti
PRE-CORO
Por tu gracia me
Mostraste la verdad
Yo te seguiré
Trae tu rei no aqui
Doy todo mi ser
Al que es mi amor
Yo te seguiré
Santo eres Tú
Haz tu vo lun tad
Te entrego to do a ti
Eres todo para mí
Eres todo para mí
Eres todo para mí
Eres todo para mí




[Follow the son chords][Follow the son cifra]
© LaCuerda.net · aviso legal · privacidad · es · en · pt · contacto
DINAMICO