Acordes de Guitarra » H »Hillsong United » Tómalo (Tab)

Tómalo
Hillsong United

Letras, Acordes y Tabs para Guitarra, Bajo y Ukulele

  • B
    De todo lugar los perdidos vendrán,
    B
    en libertad a ti clamarán,
    B
    triunfaste en la cruz, por esto hoy vivo estás,
    B
    mi Dios, a ti mi vida te daré.
    
    B
    Enviaste a Jesús por mi salvación,
    B
    Por la eternidad en ti tengo perdón,
    B G#m
    Busqué la verdad y te encontré a ti,
    E
    mi Dios, a ti mi vida te daré.
    
    B             F#
    Jesús, por ti yo viviré,
    
  • B B B Bb     D#m
    
    1ªParte:
    B
    De todo lugar
                   Bb    D#m
    Los perdidos vendràn
    B
    En libertad
              Bb   D#m
    A ti clamarán
    B
    Llevaste  LA cruz
                    Bb D#m
    Moriste, vivo estas
    B
    MI Dios
                    Bb D#m
    A ti mi vida te daré
    
    
  • B B B-Bb-D#m x4
    
    1ªParte:
    B
     De todo lugar
            Bb    D#m
    Los perdidos vendràn
    B
     En libertad
      Bb   D#m
    A ti clamarán
    B
     Llevaste  LA cruz
       Bb    D#m
    Moriste, vivo estas
    B
    MI Dios
                 Bb D#m
    A ti mi vida te daré
    
    
  • MODIFICACION A LA TRANSCRIPCION DE:
    juan josè ortiz avila (rock_juanjo@hotmail.com)
    **********************************************************************
    
    Intro - Guitarra 1
    e|--9-9-9-7-7-7-6-6-6--14-14-14-------|
    B|-----------------------12-12--------|
    G|------------------------------------|
    D|------------------------------------|    x 4
    A|------------------------------------|
    E|------------------------------------|
    
    Verso 1 - Guitarra 1
    e|--9-9-9-7-7-7-6-6-6--14-14-14-------|
    B|-----------------------12-12--------|
    G|------------------------------------|
    D|------------------------------------|    x 9
    A|------------------------------------|
    E|------------------------------------|
    
    
    Verso 1 - Guitarra 2 (viene despues de que guitarra 1 toque 4)
    e|------------------------------------|
    B|----------------------------8-8-----|
    G|----------------------------8-8-----|
    D|--9-9-9--9-9-9--9-9-9--8-8--6-6-----|    x 5
    A|--9-9-9--9-9-9--9-9-9--8-8--6-6-----|
    E|--7-7-7--7-7-7--7-7-7--6-6-------
  • Buenoo esta es  mi primera colaboracion nomas le hice unos
    areglos la otra esta muy bien pero creo ke oye mejor asi
    porfa voten  esto es para la honra De Dios !!!!!!!!!!!!!
    
    
    Intro/Verso - Guitarra 1
    e|----------------------------14--14s16-|
    B|--14-1414-12-1212-11-1111-12--12------|
    G|--------------------------------------|
    D|--------------------------------------|
    A|--------------------------------------|
    E|--------------------------------------|
    
    
    Verso 1 - Guitarra 2
    e|------------------------------------|
    B|------------------------------------|
    G|------------------------------------| este  punteo lo hace el bajo
    D|---------------------------1-1------|   tambien
    A|--2-2-2--2-2-2--2-2-2--1-1----------|
    E|------------------------------------|
    
    Coro
    e|------------------------------------|
    B|------------------------------------|
    G|--4-4-4-4-4-4-4-4-------------------|
    D|--4-4-4-4-4-4-4-4--4-4-4-4-4-4-4-4--|
    A|--2-2-2-2-2-2-2-2--4-4-4-4-4-4-4-4--|
    E|-------------------2-2-2-2-2-2-2-2--|
    
  • Intro/ verso           x10                                precoro  x1
    G|------------------------                       G|---------------------|
    D|--------------111-------                       D|---------------------|
    A|222-222-222111----------                       A|---------------------|
    E|------------------------                       E|4444444-0000000------|
    
    
    Coro x1
    G|----------------------------------------------------------------|
    D|----------------------------------------------------------------|
    A|222222-----------------------2222222-------4-4-444-4-4-444------|
    E|------2222222-4444444-0000000-------2222222---------------------|
    
    
    Intro/verso x5 y precoro
    
    Coro x2
    
    G|-----------------|
    D|-----------------|
    A|444444444--------|
    E|-----------------|
    
    G|-------------------------------
    D|-------------------------------
    A|44---------44-----44---------22
    E|--44-22-00~--44-22---44-22-00--
    
    
    
    G|--------------------------------------|
    D|----------------111-------------------|
    A|222-2
  • +
    ¡Colabora con nosotros!
    Envíanos tu versión de esta canción
  • Tutorial
    HD
    Tomalo - Hillsong United - Tutorial de Bajo
    9:08

Letra de Tómalo
De todo lugar los perdidos vendrán,
en libertad a ti clamarán,
triunfaste en la cruz, por esto hoy vivo estás,
mi Dios, a ti mi vida te daré.
Enviaste a Jesús por mi salvación,
Por la eternidad en ti tengo perdón,
Busqué la verdad y te encontré a ti,
mi Dios, a ti mi vida te daré.
Jesús, por ti yo viviré,
de ti nunca me avergonzaré
Te doy todo lo que soy,
toma, tómalo, toma, tómalo.
(verso 2 + coro x2)
Eres el que vista al ciego das,
Brillas en la oscuridad,
La salvación del mundo en tus manos está.
SI DESEAN ALGUNA EN PARTICULAR O TIENEN
ALGUNA DUDA MANDENME UN E-MAIL
LFE_BASS@HOTMAIL.COM




[Tómalo chords][Tómalo cifra]
© LaCuerda.net · aviso legal · privacidad · es · en · pt · contacto