Acordes de Guitarra » H »Hillsong United » No hay otro nombre (Tab)

No hay otro nombre
Hillsong United

Letras, Acordes y Tabs para Guitarra, Bajo y Ukulele

  • Intro: G - D/F# - G - Am - G - D/F# - Em
    
    I ESTROFA:
    D/F# G
     Él  es
    D/F#    G  Am G  D/F# Em
     Quien reina con  poder
    D/F#  G
     Creador
    D/F#  G  Am G  D/F# Em
      Su fama  eterna   es
    G/B  C
     Su voz
    G/B C D  C G/B Em
     Un eco sin final
       G           C
    Todos proclamarán
    G/B     C  D  C G/B Em  C
     No hay nadie como  Él
    
    
  •             C           G/B   C    Dm   C   G/B   Am
    E|-----3----------3-------------------4----3---------------3----
    B|-------4----------4----4--6----8--------------6----3h4-----4--
    G|---3-----3----3-----3-------3----3--5-5---------3------5-----5
    D|-------------------------------------------3------------------
    A|-6----------6----------6--5----6----3----6----5----3----------
    E|--------------------------------------------------------------
    
    
    
    
     Verso 1:
    
    
    
    G/B  C   G/B    C  Dm C  G/B  Am
     Él  es  Quien reina con  poder
    
    G/B   C  G/B C Dm   C G/B  Am
     Creador Su fama  eterna   es
    
  • [G]
    
    INTRO  G.F#.G.A.G.F#.E
    
    
    
    F# G    F#  G   A  G  F# E      F#  G  F# G  A    G F# E
    Él es quien reina con poder    Creador su fa ma eterna es
    B   C  B  C D   C   B E     F# G        B  C   B      C  D  C B  E  C
    Su voz un e co sin final    Todos proclamarán  No hay nadie como Él
    
    
    F#  G  F# G   A  G   F#     E     F#   G   F#  G  A  G F# E
    Su Luz radiante más que el sol    Su Amor  y  Gracia derramó
    B  C  B  C   D  C B  E     F#  G          B C   B      C  D  C  B  E   C
    En Él encuentro sanidad    Por siempre reinará  No hay nadie como  Él
    
    
    
                             C O R O
    
  • (D/F# - G - D/F# - G - Am - G - D/F# - Em)
    
    G ---2---4------2---4---5---4---2---0---|
    D --------------------------------------|
    A --------------------------------------|
    E ---2---3------2---3---5---3---2---0---|
    
    ESTROFA
    
    (D/F# - G - D/F# - G - Am - G - D/F# - Em)
    
    G ---2---4------2---4---5---4---2---0---|   X2
    D --------------------------------------|
    A --------------------------------------|
    E ---2---3------2---3---5---3---2---0---|
    
    (G/B - C - G/B - C - D - C - G/B - Em - G)
    
    B ---3---5------3---5---7---5---3---0----------0---3---0------------|
    G ---------------------------------------------2----------------0---|
    
  • +
    ¡Colabora con nosotros!
    Envíanos tu versión de esta canción
  • Tutorial
    HD
    Tutorial de Guitarra - No hay otro Nombre (No other name)
    - Hillsong
    0:13

Letra de No hay otro nombre
I ESTROFA:
Él es
Quien reina con poder
Creador
Su fama eterna es
Su voz
Un eco sin final
Todos proclamarán
No hay nadie como Él
II ESTROFA:
Su luz
Radiante más que el sol
Su amor
Y gracia de-rra-mó
En Él
Encuentro sani-dad
Por siempre reinará
No hay nadie como Él
Ven a adorar al que resucitó
La luz del mundo, Que nos rescató
No hay otro nombre igual
No hay otro nombre igual
Cristo nuestro Dios oh oh oh
El vencedor que a la diestra está
Ante su trono montes caerán
No hay otro nombre igual
No hay otro nombre igual
Cristo nuestro Dios oh oh oh
III ESTROFA:
En Él
Está la Salvación
Nos muestra su a-mor
Venció
La muerte con poder
El Rey de reyes es
No hay nadie como Él éllll
Ven a adorar al que resucitó
La luz del mundo, Que nos rescató
No hay otro nombre igual
No hay otro nombre igual
Cristo nuestro Dios oh oh oh
El vencedor que a la diestra está
Ante su trono montes caerán
No hay otro nombre igual
No hay otro nombre igual
Cristo nuestro Dios oh oh oh JE-SÚS
PUENTE(x2 veces):
Con tu poder, Se rompen cadenas
Cantarán, El cielo y la tierra
Santo eres Jesús
Santo es tu nombre Cristo, Cristo, Cristo
Ven a adorar al que resucitó
La luz del mundo, Que nos rescató
No hay otro nombre igual
No hay otro nombre igual
Cristo nuestro Dios oh oh oh
El vencedor que a la diestra está
Ante su trono montes caerán
No hay otro nombre igual
No hay otro nombre igual
No hay otro nombre igual
No hay otro nombre igual, JEEESÚSS
TERMINO: G
INTERLUDE FINAL: Em - C - Em - C - G
FIN
Saludos desde Barranca, Lima, Perú.
By: Abel Rodas Castillo
Cualquier duda mi Email es: abelrodascastillo@gmail.com
Dios te Bendiga.




[No hay otro nombre chords][No hay otro nombre cifra]
© LaCuerda.net · aviso legal · privacidad · es · en · pt · contacto