Acordes de Guitarra » H »Hillsong United » Es Tiempo (Tab)

Es Tiempo
Hillsong United

Letras, Acordes y Tabs para Guitarra, Bajo y Ukulele

  • INTRO:(acordes) F#m-E-D-E X2  Bm-F#m-D-E X2  F#m-A-Bm-A-Bm-F#m-D-E-A
    
    (notas para guitarra) A,B,C#,G#,B,C#,F#,A,G#,E X2  D,E,C#deslis,D,E, X2
    
                  B,A,G#,B,A, B, A, B,A
    Estas notas se juntan: I  I  I  I I
                           E, DE,C#,D,E
    
    A                                       F#m   D             A
    Amor inexplicable, tu vida diste en la cruz, tuyo soy por siempre
                                              F#m  D          A
    En tu misericordia, me diste vida, diste amor, tu gran amor
    
    PRE-CORO
         E        F#m              D
    Es tiempo de decidir por quien vivo
        E            F#m        D
    Te seguire mi alabanza te dare, Jesús!!!!
    
    CORO
    
  • INTRODUCCION: F#5 E5 D5 E5 (pueden usar octavas)
    e------7-9---7-9-------------
    B-10-10----9-----7---10-9----
    G-------------------------9--x2
    
    SEGUNDA PARTE: D5-E5 C#5 D5 E5
    G-7---9--6-(4-6)-7---9-----------
    xD-------------------------------
    A-5---7--4-------5---7-----------x2
    
    TERCERA PARTE: /F#5 A5 D5 E5/ A5
    e-------------------------------------------
    B-12-(14)-10--9-12-14--9-12--14-10---9-12--(9)-10-10-
    G---------------------------------------------
    se queda en A
    
    B-10-10-10-------------------
            A5
    /verso1: Amor inexplicable
                        F#m
    
  • E--------------------------------------------------
    B--10--10--10--10--12--12--14--14------------------
    G---------------------------------13--13--13--13---
    
    E---------------------------------------------------
    B--12--12--14--14--------------------10--10--9--9--
    G-----------------11--11--11--11-------------------9-9-9-9
    
    
    aka las dos guitarras hacen las mismas notas..
    pero uno hace grave (1era guitarra) y la otra
    hace aguda(2da Guitarra).. yo les pongo la 1era..
    
    INTRO 2 (Repite 2 veces)
    
    E--------------------------------------------------
    B--------------------------------------------------
    G--7--7--7--7--7--7--7--7--9--9--7--7--6--6--6--6--
    D--------------------------------------------------
    
    
  • A - F# - D - A
    A - F# - D - A
    
    
    
    verso :
    
    e)--------------9-9-9-----9-9-9-----9-9-9----------------------
    b)-12-14-9-7-7-7-----7-7-7-----5-5-5-----10-10-12-12-10--------
    g)-------------------------------------------------------------
    
    e)------9-9-9-----9-9-9-----9-9-9------------------------------
    b)-7-7-7-----7-7-7-----5-5-5-----12-12-14-14-------------------
    g)-------------------------------------------------------------
    
    e)-------------------------------------------------------------
    b)-10-10-10-12-12-12-14-14-14-15-15-15-------------------------
    g)------------------------------------------------------------- (x2)
    CORO
    
    
  • Verso1
    G|---|---|---|---|
    D|---|---|---|---|
    A|-0-|---|-0-|---|
    E|---|---|---|---|
    
    |----------------|----------------|-----------------|-2-2-2-2---2-2-2-|
    |----------------|0-0-0-0---0-0-0-|-----------------|-----------------|
    |----------------|----------------|-0-0-0-0---0-0-0-|-----------------|
    |2-2-2-2---2-2-2-|----------------|-----------------|-----------------|
    (verso2)
    G|-2-|---|-2-|---|
    D|---|---|---|---|
    A|---|---|---|---|
    E|---|---|---|---|
    
    |----------------|----------------|-----------------|-2-2-2-2-2-2-2-2-|
    |4-4-4-4---4-4-4-|0-0-0-0---0-0-0-|-----------------|-----------------|
    |----------------|----------------|-0-0-0-0---0-0-0-|-----------------|
    |----------------|----------------|-----------------|-----------------|
    
  • Hola a todos soy nuevo y este sera mi primer tab asi q espero q les
    guste y q Dios los bendiga a todos..
    
    Intro: Primero la guitarra y luego entra el bajo asi.
    G|-------------------------------------|
    D|-------------------------------------|
    A|---7/9(x16)--7(x16)--5(x16)--7(x16)--| x2
    E|-------------------------------------|
    
    G|-------------------------------------|
    D|-------------------------------------|
    A|---2(x16)--9(x16)--5(x16)--7(x16)----| x2
    E|-------------------------------------|
    
    G|-------------------------------------|
    D|-------------------------------------|
    A|-----------------5(x16)--------------|
    E|-2(x16)--5(x16)----------5(x16)------|
    
    G|------------------------------------------------|
    D|------------------------------------------------|
    A|---2(x16)--9(x16)--5(x16)--7(x16)--5--5/12(x32)-|
    E|------------------------------------------------|
    
    
    
    Verso (Amor inexplicable.....)   (es 12 y no 1 2)
    G|---------------------------------------------------|
    D|---------------------
  • +
    ¡Colabora con nosotros!
    Envíanos tu versión de esta canción
  • Tutorial
    HD
    The Time Has Come (Es Tiempo)


    Hillsong United

    Bass Tutorial With Tabs & Sheet Music
    6:38

Letra de Es Tiempo
(notas para guitarra) A,B,C#,G#,B,C#,F#,A,G#,E X2 D,E,C#deslis,D,E, X2
Estas notas se juntan: I I I I I
E, DE,C#,D,E
Amor inexplicable, tu vida diste en la cruz, tuyo soy por siempre
En tu misericordia, me diste vida, diste amor, tu gran amor
PRE-CORO
Es tiempo de decidir por quien vivo
Te seguire mi alabanza te dare, Jesús!!!!
Por ti, por ti lo entrego todo
Por ti, por ti es por quien vivo
Te alabare con todo lo que soy, toda mi alabanza doy
/// Tuyo soy señor, vivo para darte gloria oh Dios, gloria y honor///
PRE-CORO
// Es tiempo de decidir por quien vivo
Te seguire mi alabanza te dare//
FINAL
// Con todo lo que soy
Toda mi alabanza doy//




[Es Tiempo chords][Es Tiempo cifra]
© LaCuerda.net · aviso legal · privacidad · es · en · pt · contacto