Tablatura para Bajo de Hillsong United: Follow the son
Conexión · Inscripción
Letras y Acordes
Pantalla Completa
Imprimir
Versión Texto
Añadir Favorito
Otras Versiones

Mostrar Diagramas
Desfile Automático
Formato del Texto


Follow the son(BAJ)

Hillsong United

calidad:
huni0353
AUTOR: Marty Sampson
ALBUM: Mighty to save (2006)
Enviado por irepan
Intro/Verso:

G|---------------------------------
D|---------------------------------
A|-7-7-5-5-7-7-0-0---------5-5-5-5-
E|-----------------3-3-3-3---------

   ------------------------------------------|
   ------------------------------------------|
   -7-7-5-5-7-7-0-0---------5-5-5-5----------|
   -----------------3-3-3-3------------------|



G|-------------------------
D|-------------------------
A|-7-7-5-5-7-7-0-0---------
E|-----------------3-3-3-3-

   --------------------------------------------------|
   -------------------------5-5-5-5------------------|
   5-5-5-5--7-7-5-5-7-7-0-0---------5-5-5-5----------|
   --------------------------------------------------|


Pre-Coro:

G|----------------------------------|
D|----------------------------------|
A|-----------------5-5-5-5-7777777--|
E|-5-5-5-5-3-3-3-3------------------|

Coro:

G|-------------------------------------
D|-------------------------------------
A|-33333333----------55555555-77775555-
E|----------33333333-------------------

   --------------------------------—-----|
   -----------------------------7-5--7-5-|
   -33333333----------55555555-5---55----|
   ----------33333333--------------------|

G|--------------------------------------
D|--------------------------------------
A|-33333333----------55555555-77775555--
E|----------33333333--------------------

   -------------------------------------|
   -------------------------------------|
   33333333—--5-3-333333/15-15-15-15-15-|
   ---------3---------------------------|


G|-----------------------------------------
D|-------------------------5555------------
A|-15-15-15----77----55-77------5555-77----
E|----------------77--------------------77-
 (eres todo para mi...)
   ----------------------------------|
   ------5555---------------5555-----|
   55-77------5555-77----55------5555|
   -------------------77-------------|

Verso
Pre-Coro
coro

Bridge:

G|----------------------------------------|
D|----------------------------------------|
A|-33333333--------55-33333333-777777-55--|
E|----------333333------------------------|(x2)

Pre-Coro (x2)
coro (x2)

chequenlo y si ven que  algo esta mal pues me avisan ok jeje
Este fichero es trabajo propio de su transcriptor y representa su interpretación personal de la canción. El material contenido en esta página es
para exclusivo uso privado, por lo que se prohibe su reproducción o retransmisión, así como su uso para fines comerciales.

© LaCuerda.net · Aviso Legal · Privacidad