Tablatura de Hillsong United: Es Tiempo
Hillsong United
desconocido
Hola.. version LIRIOS®music

esta bastante incompleto la version anterior..
ahi va bien completa.. espero q les sirva..


INTRO

primero empieza en el traste 10 (A o La)
si ustedes escuchan toca muchas veces..
yo pongo pocas para q no se haga muy largo..


INTRO 1(Repite 2 veces)

E--------------------------------------------------
B--10--10--10--10--12--12--14--14------------------
G---------------------------------13--13--13--13---

E---------------------------------------------------
B--12--12--14--14--------------------10--10--9--9--
G-----------------11--11--11--11-------------------9-9-9-9


aka las dos guitarras hacen las mismas notas..
pero uno hace grave (1era guitarra) y la otra
hace aguda(2da Guitarra).. yo les pongo la 1era..

INTRO 2 (Repite 2 veces)

E--------------------------------------------------
B--------------------------------------------------
G--7--7--7--7--7--7--7--7--9--9--7--7--6--6--6--6--
D--------------------------------------------------


E--------------------------------------------------
B--------------------------------------------------
G--7--7--7--7--7--7--7--7--9--9--9--9--9--9--9--9--
D--------------------------------------------------

ACUERDENSE!! toca muchas mas veces las notas..
yo nomas les pongo pocas para q no se haga muy
largo todo..


INTRO 3 (Repite 2 veces)

E--------------------------------------------------------------
B-12--12--12--12--12--12--12--12--10--10--10--10--10--10--10--10
G--------------------------------------------------------------

E------------------------------------12--12--12--12--12---
B--9--9--10--10--12--12--12--12---------------------------
G---------------------------------------------------------

E---------------------
B--9--9--10--10-------(HACE ESTO Y EMPIEZA OTRA VEZ LA INTRO 3)
G---------------------(ESTA PARTE NO HACE EN LA 2DA VEZ)


INTRO 4

E-----------------------------------
B-12--12--12--12--12--12--12--12---- (MUCHAS VECES "LA" HASTA
G-----------------------------------  EMPEZAR LA ESTROFA)


ES TIEMPO

ESTROFA
mientras canta "AMOR INEXPLICABLE, TU VIDA DISTE EN LA CRUZ"

cuando dice CRUZ ahi va esto..

E-----------9--9--9--9--9--9------------9--9--9--9--9--9--
B--7--7--7---------------------7--7--7------------------
G--------------------------------------------------------

E-----------9--9--9--9--9--9----------------------------------
B--5--5--5----------------------10--10--10--10--12--12--10--10
G-------------------------------------------------------------

"EN TU MISERICORDIA, ME DISTE VIDA DISTE AMOR, TU GRAN AMOR"
(hace lo mismo anterior)

PRE CORO

"ES TIEMPO DE..."

E-----------------------------
B--12-12-12-12--14-14-14-14---
G-----------------------------
D-----------------------------

"POR QUIEN VINO.. TE SEGUIRE MI ALABANZA TE DARE.."
esto va con efecto (Repite 3 veces)
E----------------------------------------------------
B--10-10-10-10--12-12-12-12--14-14-14-14--15-15-15-15
G----------------------------------------------------

CORO

A - F# - D - A
A - F# - D - A INSTRUMENTAL (SOLO) E-----------9--9--9--9--9--9------------9--9--9--9--9--9-- B--7--7--7---------------------7--7--7------------------ G-------------------------------------------------------- E-----------9--9--9--9--9--9---------------------------------- B--5--5--5----------------------10--10--10--10--12--12------ G------------------------------------------------------------- E-----------9--9--9--9--9--9------------9--9--9--9--9--9-- B--7--7--7---------------------7--7--7------------------ G-------------------------------------------------------- E-----------9--9--9--9--9--9---------------------------------- B--5--5--5----------------------10--10--10--10--12--12--14--14 G------------------------------------------------------------- (SOLO BAJO) PUENTE toca muchas mas veces.. yo les pongo pocas ACUERDENSE! "TUYO SOY SEÑOR..." E--9-9-9-9-9-9-9-9---10-10-10-10-10-10-10-10---9-9-9-9-9-9-9-9-9 B--------------------------------------------------------------- G-------------------------------------------------------------- E--5-5-5-5-5-5---7-7-7-7-7-7- (EMPIEZA OTRA VEZ EL PUENTE) B--------------------------- G--------------------------- ESPERO QUE LES SIRVA DE ALGO... AGUANTE HILLSONG..!!! VISION DE CAMPEONES (Corrientes - Argentina) G12
Este fichero es trabajo propio de su transcriptor y representa su interpretación personal de la canción. El material contenido en esta página es
para exclusivo uso privado, por lo que se prohibe su reproducción o retransmisión, así como su uso para fines comerciales.
© LaCuerda.net · aviso legal · privacidad · contacto