Acordes de Guitarra » H »Hermética » Sepulcro Civil (Tab)

Sepulcro Civil
Hermética

Letras, Acordes y Tabs para Guitarra, Bajo y Ukulele

  • RE# RE#   DO#    DO# DO#  SI
    RE# RE#   DO#    FA#  FA# SI Bis               
    
    RE#
    Sepultado en el suelo.
    LA#  SI     FA# SOL#  
    Explotado y silenciado.
    RE#
    Frente al río poluído,
    LA#  SI          FA# SOL# 
    que evidencia el sistema acabado. 
    
    SOL#    LA#
    Basta, nada hay que ocultar.
    SI     DO#  RE#   LA#  LA#  LA SOL#
    Muerto estoy aquí.
    LA# SOL# LA SI DO#
    Tras el porvenir. 
    
    RE#
    
  •        MI-RE#-RE              RE-DO#-DO          MI-RE#-RE             SOL-FA#-DO    SOL-FA#-DO
    e|-------------------------------------------------------------------------------|--|--------|
    B|-------------------------------------------------------------------------------|--|--------|
    G|-------------------------------------------------------------------------------|X2|--------|
    D|--------9-8-7----------------7-6-5---------------9-8-7-----------------------5-|--|-----5--|
    A|--------7-6-5----------------5-4-3---------------7-6-5-----------------5--4--3-|--|-5-4-3--|
    E|--0-0-0--------0-0-0-0-0-0-0-------0-0-0-0-0-0-0-------0-0-0-0-0-0-0---3--2----|--|-3-2----|
    PM  .....        .............       .............       .............
    
    GUITARRA 2: MIe (puede hacer esto de fondo)                            Sol-FA#-DO    Sol-FA#-DO
    e|-------------------------------------------------------------------------------|--|--------|
    B|-------------------------------------------------------------------------------|--|--------|
    G|-------------------------------------------------------------------------------|X2|--------|
    D|----------------------------------------------------------------------------5--|--|-----5--|
    A|---7-7-7-7-7-7-7-7-7-7-7-7-7-7-7-7-7-7-7-7-7-7-7-7-7-7-7-7-7-7-7-7-7---5-4--3--|--|-5-4-3--|
    E|---0-0-0-0-0-0-0-0-0-0-0-0-0-0-0-0-0-0-0-0-0-0-0-0-0-0-0-0-0-0-0-0-0---3-2-----|--|-3-2----|
    Pm   .................................................................
      
    BAJO: 
            MI-RE#-RE            RE-DO#-DO           MI-RE#-RE             SOL-FA#-DO    SOL-FA#-DO
    
  • Sepulcro Civil (Solo)
    
    |---------------------------------------------10--8-7----8-7----7-------------------------------------7*----7-*-|
    |-----------------------------------7-8*-10-----------10-----10---10-8-7--------------7*-8-7---7---8-----10-----|
    |---------------------------------9--------------------------------------9-7----7-9----------9------------------|
    |------------------------9----10---------------------------------------------10---------------------------------|
    |-----------7-----7-9-10----------------------------------------------------------------------------------------|
    |-7-7-9-10----10------------------------------------------------------------------------------------------------|
    
    
    |-10-8-7-----7--------------------------------------------------11-14-11-14-8-11-8-11-----------------------------------------------------------------|
    |--------10----10-8-7-------7*---8-7-----------10ful--10-8-10-------------------------10-13-10-13-7-10-7-10---------------------
  • SOLO DE GUITARRA  Sepulcro civil
    
    --------------------------------------/-10-8-7----8-7---------7--------
    ---------------------------------7--8-/--------10------10--8----10--8-7
    ------------------------------9-------/--------------------------------
    -----------------7-9-------10---------/--------------------------------
    ---------7-9--10----------------------/--------------------------------
    -7-8--10------------------------------/--------------------------------
    
    ---------------------------------/------7^0------5^0-----3^0--0-0-/
    -10--8-7----7-8-7----7-8----7----/-0-0-------0-0-----0-0----------/
    ---------9--------9-----------10-/--------------------------------/
    ---------------------------------/--------------------------------/
    ---------------------------------/--------------------------------/
    ---------------------------------/--------------------------------/
    
    -----------------------------------/-11^14^11----------------------
    --8-7---7-7------10-(12)-10----8-10/-----------13---10^1
  • +
    ¡Colabora con nosotros!
    Envíanos tu versión de esta canción

Letra de Sepulcro Civil
Sepultado en el suelo.
Explotado y silenciado.
Frente al río poluído,
que evidencia el sistema acabado.
Basta, nada hay que ocultar.
Muerto estoy aquí.
Tras el porvenir.
Demorados contra el paredon.
Controlados por el represor.
Sometidos al circo de la tonta identidad,
para esconder el basurero nuclear.
Basta, nada hay que ocultar.
Muerto estoy aqui.
Tras el porvenir.
Sin futuro, sin piedad.
Sin conciencia fraternal.
Han mutado la raíz,
aniquilando el país, tu país, mi país.
(LAS NOTAS DE ARRIBA SE APLICAN PARA TODA
LA CANCION,SON LOS RITMICOS EN EL RESTO
DE LA LETRA PONDRE LASNOTAS SOLISTAS O
ARREGLOS EN LA CANCION)
Conformada y aburrida
Fa1Re#Do#
es la enferma sociedad latina.
Que usa las reglas de la creencia oficial,
para esconder su hipocresía.
Basta, ya no puedo ver
tanta mierda en torno a mi.
Muerto estoy aquí.
Sin futuro, sin piedad.
Sin conciencia fraternal.
Han mutado la raíz,
aniquilando el país, tu país, mi país.
(Las notas solistas son igual en todas
las partes de la cancion)




[Sepulcro Civil chords][Sepulcro Civil cifra]
© LaCuerda.net · aviso legal · privacidad · es · en · pt · contacto