Acordes de Guitarra » H »Hermética » Atravezando todo límte (Tab)

Atravezando todo límte
Hermética

Letras, Acordes y Tabs para Guitarra, Bajo y Ukulele

  • B5-D5-E5-D5-F#5(8va)-D5-C#5-B5-D5-E5-D5-F#5-D5-A5
    
    B5                 D5            A5        B5
    A las montañas del noroeste argentino
       E5           A5
    te dirigiste hermano
    B5              D5             A5          B5
    dejando grabado por siempre en mi corazon
       E5         A5
    aquel fuerte abrazo
    
    G5               D5
    Donde mostraste tu intima conciencia
    A5              B5
    de guerrero impecable
    G5                 D5
    que marcha firme a cumplir su destino
    A5                 B5
    sin nada a nadie deber.
    
    
  • A5 C5 D5 C5 E5 C5
    A5 C5 D5 E5* C5 G5
    
    
    A5                 C5            G5        A5
    A las montañas del noroeste argentino
       D5           G5
    te dirigiste hermano
    A5              C5             G5          A5
    dejando grabado por siempre en mi corazon
       D5         G5
    aquel fuerte abrazo
    
    F5               D5 <-------------------- Y UN PUNTEO ASI A|--3--5--6--5--3--|
    Donde mostraste tu intima conciencia
    G5              A5 <--------------------- Y UN PUNTEO ASI E|--8--7--5--|
    de guerrero impecable
    F5                 D5
    que marcha firme a cumplir su destino
    G5
    
  • |-------------------------------------------------------------------|
    |-------------------------------------------------------------------| X 2
    |-------7--6-------5--4---------------------------------------------|
    |--4-4--7--6--4-4--5--4---------------------------------------------|
    |--2-2--------2-2---------------------------------------------------|
    |-------------------------------------------------------------------|
    
    SOLO
    |-------------------------------------------------------------------|
    |-----------------------5-------------------5-7---------------------|
    |----4-764764764764-6-7---6---6---6---4-6-7-------------------------|
    |---------------------------7---7---7-------------------------------|
    |-------------------------------------------------------------------|
    |-------------------------------------------------------------------|
    
    |-------------------------------------------------------------------|
    |--------------------------------------------------------------
  • Bueno pido disculpas por la primer versio, ahora hice una nueva  por que 
    el tema se merece un buen tab, escunchen este tema de la placa Hermetica
    en Concierto Parte I
    
    *: esto significa los arreglos que hace el tano cuando lo hacen en vivo.
    
    Intro: x4
    
           
    1+--------+-----------------------+----------------------------+
    2+--------+-----------------------+----------------------------+
    3+*------*+----------------6------+----------------6-----------+
    4+*-9/4--*+--4--4--7--9--7-4-7-6--+--4-4--7--9-9-7-4-7-7-------+
    5+--7/2---+--2--2--5--7--5---5-4--+--2-2--5--7-7-5---5-5-7-7---+
    6+--------+-----------------------+----------------------5-5---+
    
    Esto lo hace la ultima ves 
    1+-----------------------------------+
    2+-----------------------------------+
    3+*---------------6----------------*-+
    4+*-4-4--7--9-9-7-4-7-7-9-9--------*-+
    5+--2-2--5--7-7-5---5-5-7-7-7--------+
    6+--------------------------5/12/3---+
    
    
      A las montañas del noroeste argento, ...     te dirjist
  •     B  B  D E  E   D F# D D   B  B  D E D F# E E  A
    |-------------------------------------------------------------|
    |-------------------------------------------------------------|
    |---4--4--7-9--9---7-11-7-7---4--4--7-9-7-11-7-7--------------|
    |---4--4--7-9--9---7-11-7-7---4--4--7-9-7-11-7-7--7-----------|
    |-------------------------------------------------7-----------|
    |-------------------------------------------------------------|
    (Son solamente las quintas y octavas del acorde 5° que figura arriva).
    
    
    Muletilla
    |----------------------------------------------------------|
    |----------------------------------------------------------|
    |----------------------------------------------------------|
    |----------------------------------------------------------|
    |---5----4---------5---------------------------------------|
    |-------------5----3---------------------------------------|
    
    
    Intro (x4)
    
  • INTRO x2
    
    G|-------------------------------------------
    D|------------------------4------------------
    A|----------5--7--7----5------5--5---4-------
    E|--7--7-------------------------------------
                                                      
    G|-------------------------------------------
    D|------------------------4------------------
    A|----------5--7--7----5------5--5-----------
    E|--7--7-----------------------------5-------   
    
      A las montañas del noroeste argentino
    G|-------------------------------------------
    D|-------------------------------------------
    A|-------------------5--5--5--5--5-----------
    E|--7--7--7--7--7-------------------5--5--5--
      
      te dirijiste hermano
    G|-------------------------------------------
    D|-------------------------------------------
    A|--7--7--7--7-------------------------------
    E|--------------5--5--5----------------------
     
      dejando grabado por siempre en mi corazon
    G|-------------------------------------------
    D|------------
  • +
    ¡Colabora con nosotros!
    Envíanos tu versión de esta canción

Letra de Atravezando todo límte
A las montañas del noroeste argentino
te dirigiste hermano
dejando grabado por siempre en mi corazon
aquel fuerte abrazo
Donde mostraste tu intima conciencia
de guerrero impecable
que marcha firme a cumplir su destino
sin nada a nadie deber.
Paso el tiempo y sin saber nada de vos
corrimos a buscarte
soñe con verte libre a la luz del sol
y se que lo lograste
Mas solo fueron testigos
de estas inmensidades
historia triste fue verlos vencidos
y sin hallarte volver, tener que volver!
A enfrentar caras de gente que no entiende
y que con burlas justifican su ignorancia
olvidando que la pesadilla suele hacerse realidad
y ahi que pasa? Que es lo que pasa!
Que el viento lleve esta cancion a tus oidos
salvando distancias
y que en tu estrella observes que aun sigo de pie
es mi esperanza
Sigo intentando andar el camino
para el cual me formaste
y aunque sin vos se ha tornando muy duro
no me dejare vencer, no te fallare!
Es mi egoismo el que se rebela a perderte
y mi alma no saber cual fue tu suerte
hermano mio, solo resta decirte que jamas te olvidare
tenlo presente.....No te olvidare!
hermano míoo!
saludos y a rockear.




[Atravezando todo límte chords][Atravezando todo límte cifra]
© LaCuerda.net · aviso legal · privacidad · es · en · pt · contacto