Acordes de Guitarra » H »Hermética » Yo no lo haré (Tab)

Yo no lo haré
Hermética

Letras, Notas, Punteos, Tablaturas y Acordes de Guitarra (Tabs & Chords)

  • Tablatura
    e|---------------------------------|-----------------------------------|
    b|---------------------------------|---------------------------------0-|
    G|-------0-------4-----2---------0-|-------0-------4-------0-----------|X2
    D|-----4-------5-----2---------0---|-----4-------5-------7---------7---|
    A|---2-------3-----0---------0-----|---2-------3----/7-5---------7-----|
    E|-0-------0-------------3-2-------|-0-------0---------------6-5-------|
    
    
    sigue asi ...  Entra el BAJO- y la bata
    GUITARRA:
                                                                                 SOL
    e|---------------------------------|-----------------------------------|   |-------------------|
    b|---------------------------------|---------------------------------0-|   |---------3---------|
    G|-------0-------4-----2---------0-|-------0-------4-------0-----------|X2 |-------3---3-------|
    D|-----4-------5-----2---------0---|-----4-------5-------7---------7---|   |-----5-------5-----|
    A|---2-------3-----0---------0-----|---2-------3----/7-5---------7-----|   |---5----------5----|
    E|-0-------0-------------3-2-------|-0-------0---------------6-5-------|   |-3-------------(3)-|
    
    BAJO:
    G|-------------------------------------------------|--|---------------------|
    
  • Tab p/Bajo
    Intro
    G|-------------------------------------------------|--|---------------------|
    D|-------------------------------------------------|X2|---------------------|
    A|--------(5)---2-0-----------------2--------------|--|---------------------|
    E|-(0)--------------3-5--(0)--3-2-3---5-3-(2)--3-2-|--|--3----3----3----3---|
    
    
    Verso 1.
              ______X2______   
    G|-----||----------------|--------------------------|
    D|-----||----------------|--------------------------|
    A|-----||------(3)-------|-----(3)--(5)---5---------|
    E|-3-2-||-(0)-------2-3--|-(0)-----------------12/--|
    
    Verso 2.
    G|---|-----|----|---|----|----|-----------7-7-7-7-7-7-7-|
    D|---|-----|----|---|----|----|-------------------------|
    A|---|-(3)-|----|(3)|----|(3)-|-(5)--7--5---------------|
    E|(0)|-----|(0)-|---|(0)-|----|-------------------------|
    
    G|----|-------|------------|----|-------|--------------|-----|-------|------------7-7-7-7-7-7-7-|
    D|----|-------|------------|----|-------|--------------|-----|---
  • +
    ¡Colabora con nosotros!
    Envíanos tu versión de esta canción

Letra de Yo no lo haré
sigue asi ... Entra el BAJO- y la bata
GUITARRA:
BAJO:
VERSO 1: (sin dist.)
Míralos,
vienen atrás.
Y nuestro amor ausente está
entorpeciendo su andar..
2do VERSO:
GUITARRA : (con distorcion)
D|(2)|-(5)-|(2)-|(5)|(2)-|(5)-|-(7)-/9-(7)|
A|(2)|-(3)-|(2)-|(3)|(2)-|(3)-|-(5)-/7-(5)|
BAJO:
Acércate,
acompáñame,
busquemos sin mirar atrás,
es la última oportunidad
aca cambia
......... ......
BAJO:
Tenemos
este camino
sin más para elegir
que oxidarse o resistir.
ESTRIBILLO 1:
GUITARRA:
..... ....... PM ..
BAJO:
Permitir que el miedo los detenga
es dispararles por detrás.
Alimentando aun la asfixiante oscuridad.
VERSO 3:
......... ......
Yo no lo haré, no los entregaré
a la impaciente ansiedad.
Del vicio o la soledad.
ESTRIBILLO 2: (igual que el 1)
Impedir que para el futuro mueran
es encender una vez mas
el fuego vivo que este entorno limpiará.
Acercate.
GUITARRA2: ___________X2__________
pm,,,,,,,, ..........
BAJO: _______________X2____________
____________x2_______________
A|5-5-5-5-5-5-5-5-5-5-5-5-5-5-5-3|
GUITARRA (solo)
REPITE VERSO 3.
Yo no lo haré, no los entregaré
a la impaciente ansiedad.
Del vicio o la soledad.
REPITE ESTRIBILLO 2: (igual que el 1)
Impedir que para el futuro mueran
es encender una vez mas
el fuego vivo que este entorno limpiará.
FINAL:
Acércate,
acompañame,
busquemos sin mirar atrás...
fin.



© LaCuerda.net · Aviso Legal · Privacidad
DINAMICO