Acordes de Guitarra » H »Hermética » Desterrando a los oscurantistas (Tab)

Desterrando a los oscurantistas
Hermética

  • Tablatura
    Intro:
    
    e|-------------------------------------|
    b|-------------------------------------|
    g|---7---------------------------------|
    d|-7-5--9/0-9/0-9/0--6-7-6-7--9-8-7-6--|
    a|-5----7/0-7/0-7/0--4-5-4-5--7-6-5-4--|
    E|-------------------------------------|
    
    Riff 1:
    Por temer...
    e|------------------------------------------------------|
    b|------------------------------------------------------|
    g|-----------------------------------------7------------|
    d|-6-----------7-------------9-------------5--9-8-7-6---|
    a|-4-4-4-4-4-4-5-4-4-4-4-4-4-7-4-4-4-4-4-4----7-6-5-4---|
    E|------------------------------------------------------|
    
    Riff 2:
    Guerra...
    e|-----------------------------|
    b|-----------------------------|
    g|-----------------------------|
    d|--9-------------12-11--7--9--|
    a|--7-7-7-7-7-7-7-10--9--5--7--|
    E|-----------------------------|
    
    Riff 3:
    Sigo en pie...
    e|------------------------------------------------------------------------------|
    b|---------------------
  • Tab p/Bajo
    Desterrando a los oscurantintas- BAs
    
    Intro de Iorio: lo hace con ligados pero 
    si se manejan lo van a hacer bien
    G|------------------------------------------------|
    D|------------------------------------------------|
    A|--3--5-5-5-5-5--3--5-5-5-5-5---3--5-5-5-5-5-----|
    E|------------------------------------------------|
    
    G|-------------------------------------|
    D|---5---------------------------------|
    A|-5----7---7---7----4-5-4-5--7-6-5-4--|
    E|-------------------------------------|
    
    
    Por temer...
    G|----------------------------------------------------|
    D|-----------------------------------------5----------|
    A|-4-4-4-4-4-4-5-4-4-4-4-4-4-7-4-4-4-4-4-4----7-6-5-4-|
    E|----------------------------------------------------|
    
    
    Guerra, prefabricaron...
    G|-----------------------------|
    D|-----------------------------|
    A|--7-7-7-7-7-7-7-10--9--5--7--|
    E|-----------------------------|
    
    Muerte siguen sembrando ...
    G|-----------------------------|
    D|---------------------
  • +
    ¡Colabora con nosotros!
    Envíanos tu versión de esta canción





© LaCuerda.net · aviso legal · privacidad · contacto