Acordes de Guitarra » H »Hermética » Del camionero (Tab)

Del camionero
Hermética

Letras, Acordes y Tabs para Guitarra, Bajo y Ukulele

  • Em                       C#9        Em            G
    e|--------0---------------4---------------0-------3---3---------|X3
    B|----------0-----------4---4---------------0-----0-0---0----0--|
    G|------------0-------6-------6-------------------0--------0----|
    D|------2-----------6-----------6-------2---------0-------------|
    A|----2-----------4-------------------2-----------2-------------|
    E|--0-------------------------------0---------0-2-3-------------|
    Intro como base:
    Conduciendo mi camión
    estoy viendo asomar el sol.
    Respirando el amanecer,
    las distancias intento vencer.
    El insomnio de una noche sin luna,
    G / D / Em
    se va muriendo.
    Y el día nace mostrando la ruta
    G / D / Em 
    que andaré.
    Base:
       Em     E5  C5#           D5  E5    Em     E5 G5
    
  • Los guiones marcan el comienzo de cada compas, los puse para que se
    ubiquen mejor en el tiempo.
    
    0:09
    G|-----
    D|-12-
    A|-----
    E|-----
       -           -             -         -
    G|------------------------------9----------12---------
    D|-----------------11-9----9---------------------9----
    A|-7----7h9h10----------11---7-----7-9-10-----10---10-
    E|-------------9--------------------------------------
    
       -           -          -         -
    G|---------------------------9---------------12---
    D|--------------------------------------9-------9-
    A|-7----7h9h10----------9-7-----7-9-10----10------
    E|-------------9----9h10--------------------------
    
    “Conduciendo mi camion estoy viendo asomar el sol…
       -           -          -         -
    G|---------------------------9----------12---------
    D|--------------------------------------------9----
    A|-7----7h9h10----------9-7-----7-9-10-----10---10-
    E|-------------9----9h10---------------------------
    
    …respirando el amanecer las distancias intento vencer…
       - 
  • +
    ¡Colabora con nosotros!
    Envíanos tu versión de esta canción

Letra de Del camionero
Conduciendo mi camión
estoy viendo asomar el sol.
Respirando el amanecer,
las distancias intento vencer.
El insomnio de una noche sin luna,
se va muriendo.
Y el día nace mostrando la ruta
que andaré.
Base:
Se alimenta mi corazón,
del constante rugir del motor,
esforzándose por rodar
dieciocho ruedas sin lamentar.
En las horas del rural sacrificio,
nos están viendo,
como un sueño inalcanzable, perdiéndonos...
Perdiéndonos
en el constante llevar y traer
pesadas cargas ganando el sustento.
Conduciendo un camión
yo me echo a pleno viviendo este sueño
Al que mi vida entregué,
como mi padre hizo ayer.
En él está mi felicidad, no necesito más
por eso canto lo que siento, en un camión.
Mediodía en la ruta es
y yo intentando distancias vencer.
Pienso en los muchos que sabrán
Sólo de sentirse contentos en el camión
vivendo el sueño en el que estoy.
Y sigue...
Haciendo un alto al atardecer
bajo unos árboles, guachos de tiempo.
Junto a mi camión
nos ve descansar el campo abierto.
En las banquinas me enredé
y sólo mi camión lo sabe bien,
las rutas y su soledad
Sólo para verme contento
en un camión viviendo el sueño.
Al que mi vida entregué
como mi padre hizo ayer
En el está mi felicidad, no necesito más
por eso canto lo que siento, en un camión.
Fin: [ E5 / D5 / C5# / C5 ]X4 Em
Se lo dedico a Celso Javier Martínez, quien me accedió atodas las placas
de Hermética y del Heavy Nacional.
Aguante Hermetica mierda!!




[Del camionero chords][Del camionero cifra]
© LaCuerda.net · aviso legal · privacidad · es · en · pt · contacto
DINAMICO