Tablatura para Bajo de Hermética: Del camionero
Conexión · Inscripción
Letras y Acordes
Pantalla Completa
Imprimir
Versión Texto
Añadir Favorito
Otras Versiones

Mostrar Diagramas
Desfile Automático
Formato del Texto


Del camionero(BAJ)

Hermética

calidad:
hrmt0182
AUTOR: Ricardo Iorio
ALBUM: desconocido
Enviado por victor
Los guiones marcan el comienzo de cada compas, los puse para que se
ubiquen mejor en el tiempo.

0:09
G|-----
D|-12-
A|-----
E|-----
   -           -             -         -
G|------------------------------9----------12---------
D|-----------------11-9----9---------------------9----
A|-7----7h9h10----------11---7-----7-9-10-----10---10-
E|-------------9--------------------------------------

   -           -          -         -
G|---------------------------9---------------12---
D|--------------------------------------9-------9-
A|-7----7h9h10----------9-7-----7-9-10----10------
E|-------------9----9h10--------------------------

“Conduciendo mi camion estoy viendo asomar el sol…
   -           -          -         -
G|---------------------------9----------12---------
D|--------------------------------------------9----
A|-7----7h9h10----------9-7-----7-9-10-----10---10-
E|-------------9----9h10---------------------------

…respirando el amanecer las distancias intento vencer…
   -           -             -         -
G|----9-------------------------9----------12---------
D|-----------------11-9----9---------------------9----
A|-7----7h9h10----------11---7-----7-9-10-----10---10-
E|-------------9--------------------------------------

…el insomnio de…   …se va muriendo…
   -        -        -     -
G|----7--------9------------------
D|-------------------5--7---------
A|-5-----5--7-----7--------7----7-
E|--------------------------------

…y el dia nace… …que andare…
   -       -       -     -      -      -      -
G|----------------------------------------6---------
D|--------------------------------------------------
A|-5----5--7----7------------7-5------4------3-----
E|-----------------3--5--0--------------------------

…se alimenta mi corazon del constante rugir del motor…
   -         -               -         -
G|----------------------------------------------
D|-------------------------4-----------5--------
A|-7-7-7-7---4-4-4-4-4-4-5---7-7-7-7------------
E|----------------------------------------------

…esforzandose por rodar 18 ruedas sin lamentar…
   -         -               -         -
G|-------------------------------------------------
D|-------------------------4-----------5--5--5--5--
A|-7-7-7-7---4-4-4-4-4-4-5---7-7-7-7---------------
E|-------------------------------------------------

…en las horas del… …nos estan viendo…
   -        -        -
G|--------------------------------
D|--------------------------------
A|-5--------7--------------7------
E|-------------------3--5---------

…como un sueño…    …perdiéndo-
   -        -        -
G|-------------------------
D|-------------------------
A|-5--------7--------------
E|-------------------3--5--

nos…
G|----------------------------------------
D|----------------------------------------
A|-7-7|7|7-7|7|7-7|7|7-5-5|5|5-5|5|5-5|5|5
E|----------------------------------------
                        …perdiendonos…
G|----------------------------------------
D|----------------------------------------
A|-4-4|4|4-4|4|4-4|4|4-3-3|3|3-3|3|3-3|3|3
E|----------------------------------------

          (4 veces)
…en el constante llevar y…
   -           -
G|--------------------------|
D|--------------------------| Parte
A|-7-7-7--7---------------6-|   A
E|-----------6--6-6-6-6-6---|

                (2 veces)
…al que mi vida entregué, como mi padre hizo ayer…
G|--------------------------------------|                           
D|--------------------------------------|                           |
A|-4-4|4|4-4|4|4-4|4|4|0--0-0|0|0-0|0|0-|                           |
E|--------------------------------------|                           |Parte
                                                                    |  B
…en él está mi felicidad…          …no necesito más por eso canto   |
G|---------------------------------------------------------------   |
D|---------------------------------------------------------------   |
A|-4-4|4|4-4|4|4-4|4|4|0--0-0|0|0-0|0|0|5--5-5-5-----------------   |
E|-----------------------------------------------7--7-7-7-7-7-7-7   /

Repite parte A (2 veces), B, A (2 veces), después:

2:41 (aca empieza el solo del Tano Romano)
G|----------------------------------------
D|----------------------------------------
A|-4-4|4|4-4|4|4-7-6-5-5|5|5-5|5|5-5|5|5-0
E|----------------------------------------

G|-------------------------------------
D|-------------------------------------
A|-4-4|4|4-4-4-4-0-3-3|3|3-3-3|3|3|3|3-
E|-------------------------------------

2:48
G|------------------------------------
D|------------------------------------
A|-7-7-7-7|7|7-7|7|7|5-5-5-5|5|5-5|5|5
E|------------------------------------

G|-------------------------------------
D|-------------------------------------
A|-4-4-4-4|4|4-4|4|4|3-3-3-3|3|3-3|3|3-
E|-------------------------------------

2:54
G|---------------------------------------------
D|---------------------------------------------
A|-7-7-7-7|7|7-7|7|7|10-10-10-10|10|10-10|10|10
E|---------------------------------------------

G|------------------------------------------
D|------------------------------------------
A|-12-12-12-12-12-12-12|12|12|14-7-7-7-7-7-5
E|------------------------------------------

3:00
G|-------------------------------------------------------
D|-------------------------------------------------------
A|-7-7-7|7|7-7|7|7-7|7|7|10-10-10|10|10-10|10|10-10|10|10
E|-------------------------------------------------------

G|----------------------------
D|----------------------------
A|-9-9-9-9|9|9-9-7-5-------6--
E|--------------------0-6-7---

Repite parte A (4 veces), B, A (2 veces), después:

3:59
G|------------------------------------
D|------------------------------------
A|-7-7-7-7|7|7-7|7|7|5-5-5-5|5|5-5|5|5
E|------------------------------------

G|-------------------------------------
D|-------------------------------------
A|-4-4-4-4|4|4-4|4|4|3-3-3-3|3|3-3|3|3-
E|-------------------------------------

4:06
G|------------------------------------
D|------------------------------------
A|-7-7-7-7|7|7-7|7|7|5-5-5-5|5|5-5|5|5
E|------------------------------------

G|-------------------------------------
D|-------------------------------------
A|-4-4-4-4|4|4-4|4|4|3-3-3-3|3|3-3|3|3-
E|-------------------------------------

4:12
G|---------------------------------------------
D|---------------------------------------------
A|-7-7-7-7|7|7-7|7|7|10-10-10-10|10|10-10|10|10
E|---------------------------------------------

G|------------------------------------------
D|------------------------------------------
A|-12-12-12-12|12|12-12|12|12|14-7-7-7-7-7-5
E|------------------------------------------

4:19
G|---------------------------------------------
D|---------------------------------------------
A|-7-7-7-7|7|7-7|7|7|10-10-10-10|10|10-10|10|10
E|---------------------------------------------

G|----------------------------------------------------
D|----------------------------------------------------
A|-9-9-9-9|9|9-9-7-5-------6--------------------------
E|--------------------0-6-7---7-6-0-------------------


  / : slide up (“arrastrar” hacia adelante)
  h : hammer on (ligado)
x|x : tocar las dos notas consecutivamente rápido por Ej. 10|10

Del Camionero (Iorio)

Conduciendo mi camión
estoy viendo asomar el sol.
Respirando el amanecer,
las distancias intento vencer.

El insomnio de una noche sin luna,
se va muriendo.
Y el día nace mostrando la ruta
que andaré.

Se alimenta mi corazón,
del constante rugir del motor,
esforzándose por rodar
dieciocho ruedas sin lamentar.

En las horas del rural sacrificio,
nos están viendo,
como un sueño inalcanzable, perdiéndonos...

Perdiéndonos
en el constante llevar y traer
pesadas cargas ganando el sustento.
Conduciendo un camión
yo me echo a pleno viviendo este sueño

Al que mi vida entregué,
como mi padre hizo ayer.
En él está mi felicidad, no necesito más
por eso canto lo que siento, en un camión.

Mediodía en la ruta es
y yo intentando distancias vencer.
Pienso en los muchos que sabrán
mi canto guardar
Sólo de sentirse contentos en el camión
vivendo el sueño en el que estoy.

Haciendo un alto al atardecer
bajo unos árboles, guachos de tiempo.
Junto a mi camión
nos ve descansar el campo abierto.

En las banquinas me enredé
y sólo mi camión lo sabe bien,
las rutas y su soledad
mi canto guardarán
Sólo para verme contento
en un camión viviendo el sueño.

Al que mi vida entregué
como mi padre hizo ayer
En el está mi felicidad, no necesito más
por eso canto lo que siento, en un camión.


Mientras su musica se siga tocando y escuchando el carpo jamas morira,
vivira eternamente en la memoria de todos.
Este fichero es trabajo propio de su transcriptor y representa su interpretación personal de la canción. El material contenido en esta página es
para exclusivo uso privado, por lo que se prohibe su reproducción o retransmisión, así como su uso para fines comerciales.

© LaCuerda.net · Aviso Legal · Privacidad