Acordes de Guitarra » H »Hermética » Buscando Razón (Tab)

Buscando Razón
Hermética

Letras, Acordes y Tabs para Guitarra, Bajo y Ukulele

  • Riff A
    e|---------------------------------------------------|
    B|---------------------------------------------------|
    G|---------------------------------------------------|
    D|-------------------------------------------5-------|
    A|--5-7---------5-7------------5-7-------5-7---7~----|
    E|------5-7--0------5-7---0-0------5-7-0-------------|
    
    A)
    |--------------------|
    |--------------------|
    |-7-7----------------|
    |-7-7----------------|
    |-5-5----------------|
    |--------------------|
    
    
    B) (A5-E5)x3 C5-B5
    C) G5-D5-C5-D5-E5
    D) Base solo: G-D-C-B-E
    
  • e|-----------------------------------------------------------|
    B|-----------------------------------------------------------|
    G|-----------------------------------------------------------|
    D|--------------------------------------------------5--------|
    A|--------5-7-5--------5-7-5-------5-7-5--------5-7---7------|
    E|-(0)(0)-------7-0-0-0------7-0-0-------7-0-0-0-------------|
    
    
    
    A5 A5                   B5 A5 A5                         Intro x1      
          Buscando razon            que me impida despreciarte,
    
          nacio esta cancion      que tal vez pueda alcanzarte.
    
         A5                    E5  
          Mi rechazo hacia tus baladas de amor,
         A5                 E5
          me llego desde pendejo.
         A5           B5    
          Cuando V8 era mala palabra,
    
  • E/---------------10------------------------------------
    B/-(7)/12--10-------13-12-10---10-----------------------
    G/------------12------------12------12-11-9-11-9-8-9--9-
    D/-------------------------------12----------------------
    A/-------------------------------------------------------
    E/-------------------------------------------------------
    
    E/-------7-8-10-8-7------------------10-8-7---------(10)/15-14
    B/7-8-10------------10-8-7-8-10-8-7---------10-8-7-8----------
    G/----------------------------------7-------------------------
    D/------------------------------------------------------------
    A/------------------------------------------------------------
    E/------------------------------------------------------------ 
    
                                                    
    E/12----12-14-15-14-12-10--12-14-15-14-12-10-12-14-12---------
    B/---12-----------------------------------------------12-10/8-
    G/------------------------------------------------------------
    D/------------------------------------------------------------
    A/------------------------------------------------------------
    
  • Empieza solo la guitarra y después:
    
    0:10
    G|----
    D|----
    A|-7--
    E|----
                       (2 veces)
    G|------------------------------------------------|
    D|-------------------------------------------5----| Parte
    A|-5-7----------5-7---------5-7----------5-7---7--|   A
    E|-----5-7-0-0|0----5-7-0-0-----5-7-0-0|0---------|
    
    “Buscando razon, que mi impida despreciarte
    G|---------------------------
    D|---------------------------  Parte
    A|-5-5-----5/5-5-----5-----    B
    E|-----------------------0-0-
    
    Repite parte A, B, A, después:
    
                 (3 veces)
    …mi rechazo hacia tus baladas de amor…
    G|---------------------------------|           
    D|---------------------------------|           |
    A|-0--0-0|0--0--7--7-7|7-7|7|7|7-7-|           |
    E|---------------------------------|           |
                                                   | Parte
    …se intentaba, con vos lavar los cerebros…     |   C
    G|--------------------------------             |
    D|--------------------------------             |
    A|-3-
  • +
    ¡Colabora con nosotros!
    Envíanos tu versión de esta canción

Letra de Buscando Razón
D) Base solo: G-D-C-B-E
Buscando razón,que me impida despreciarteeee!
Nació esta canción,que tal vez pueda alcanzarteeee!
Mi rechazo hacia tus baladas de amor,
me llego desde pendejo.
Cuando V8 era mala palabra,
se intentaba con vos lavarnos cerebros
Fuiste azota del jazz-rock,
reggae, pop, new-wave, moderno
Hoy cantas tus amorios
con fanfarrias de rockero.
Yo que nunca comparti tu pose Stone,
voy a deschavarte el juego:
Sos veleta de la moda y no me asombra,
que mañana amanezcas metalero
Buscando razón
que me impida despreciarte,
nació esta canción
que tal vez pueda alcanzarte.
Mi rechazo hacia tus baladas de amor,
me llego desde pendejo.
Cuando V8 era mala palabra,
se intentaba con vos lavarnos cerebros.
Fuiste azota del jazz-rock,
reggae, pop, new-wave, moderno.
Hoy cantas tus amorios
con fanfarrias de rockero.




[Buscando Razón chords][Buscando Razón cifra]
© LaCuerda.net · aviso legal · privacidad · es · en · pt · contacto
DINAMICO