Acordes de Guitarra » H »Heavy Nopal » No tengo tiempo (Tab)

No tengo tiempo
Heavy Nopal

Letras, Acordes y Tabs para Guitarra, Bajo y Ukulele

  • INTRO(C,Em,F,G)
    C                   Em
    Camino sobre sue~os,innecesarios y rotos
    F                G
    prisionero iluso,de esta selva cotidiana.
    F                Am
    Y como hoja seca,que vaga en el viento,
    D                G
    vuelo imaginario,sobre escombros de concreto.
    
    C                Em
    Navego en el mar,de las cosas exactas,
    F                     G
    enclavado en momentos,de semanticas gastadas.
    F                        Am
    Y cual si fuera una nube,esculpida sobre el cielo,
    D                   G
    dibujo insatisfecho,mis huellas en el invierno.
    
             C                                Em
    
  • INTRO (C, Em, Am, G)
    E|-------------------------|
    B|-------------------------|
    G|-------------------------|
    D|-------------------------|
    A|------0--2---------------|
    E|---3---------------------|
    
    Este es un pequeño arreglo de lo que hace el sax.
    Repítelo dos veces
    e|--------------------------------------------------------------------------------------
    B|6--8---8--6--8--6--8--6----5--6--8---8--6--8--6--8--6---5--6--8--8--6--8--6--8--6--5-8
    G|--------------------------------------------------------------------------------------
    D|--------------------------------------------------------------------------------------
    A|--------------------------------------------------------------------------------------
    E|--------------------------------------------------------------------------------------
    
    ------------------------------------------|-con esto termina en la segunda repetición--|
    --6--5--8--8--6--8--6--8--6--8--6---5--8--|--6--5--------------------------------------|
    ------------------------------------------|--------------------------------------------|
    
  • E-----------------1-3--3-1-0-1-3-1-0--1-3--3-1-0-1-3-1-0--
    B-----------------3-5--5-3-1-3-5-3-1--3-5--5-3-1-3-5-3-1--
    G---------------------------------------------------------
    D---------------------------------------------------------
    A------------2--------------------------------------------
    E---3---5-------------------------------------------------
    
    E-1-3--3-1-0-1-3-1-0--3---1-0-1--1-3--3-1-0-1-3-1-0--1-3--
    B-3-5--5-3-1-3-5-3-1--5---3-1-3--3-5--5-3-1-3-5-3-1--3-5-
    G---------------------------------------------------------
    D---------------------------------------------------------
    A---------------------------------------------------------
    E---------------------------------------------------------
    
    E-3-1-0-1-3-1-0--1-3--3-1-0-1-3-1-0--3---5-3-1--0----------
    B-5-3-1-3-5-3-1--3-5--1-3-1-3-5-3-1--5---6-5-3--1----------
    G--------------------------------------------------------0-
    D---------------------------------------------------0H2----
    A----------------------------------------------------------
    E----------------------------------------------------------
    
  • +
    ¡Colabora con nosotros!
    Envíanos tu versión de esta canción

Letra de No tengo tiempo
Camino sobre sue~os,innecesarios y rotos
prisionero iluso,de esta selva cotidiana.
Y como hoja seca,que vaga en el viento,
vuelo imaginario,sobre escombros de concreto.
Navego en el mar,de las cosas exactas,
enclavado en momentos,de semanticas gastadas.
Y cual si fuera una nube,esculpida sobre el cielo,
dibujo insatisfecho,mis huellas en el invierno.
Ya que yo,no tengo tiempo de cambiar mi vida,
la maquina me ha vuelto una sombra borrosa.
Y cual si fuera la tuerca que han negado tus ojos
se que aun tengo tiempo para atrancar en buen puerto.
Camino automatico,en una alfombra de status,
masticando en mi mente,las verdades mas sabidas.
Y cual si fuera la espuma,de un anuncio de cerveza,
una marca me ha vendido ya la forma de mi cabeza.
Sabes que,manejo implacable,en mi nave cibernetica,
entre aquel laberinto,de los planetas muertos.
Y como lobo salvaje,que ha perdido su camino,
he llenado mis bolsillos,con escombros del destino.
Ya que yo,no tengo tiempo de cambiar..........




[No tengo tiempo chords][No tengo tiempo cifra]
© LaCuerda.net · aviso legal · privacidad · es · en · pt · contacto