Tablatura para Guitarra de Heavy Nopal: No tengo tiempo
Conexión · Inscripción
Letras y Acordes
Pantalla Completa
Imprimir
Versión Texto
Añadir Favorito
Otras Versiones

Mostrar Diagramas
Desfile Automático
Manipular Acordes
Formato del Texto


No tengo tiempo(TAB)

Heavy Nopal

calidad:
heav0043
AUTOR: Rockdrigo Gonzalez
ALBUM: desconocido (Ü¿¿)
Enviado por Ivan
Introducción del sax

E-----------------1-3--3-1-0-1-3-1-0--1-3--3-1-0-1-3-1-0--
B-----------------3-5--5-3-1-3-5-3-1--3-5--5-3-1-3-5-3-1--
G---------------------------------------------------------
D---------------------------------------------------------
A------------2--------------------------------------------
E---3---5-------------------------------------------------

E-1-3--3-1-0-1-3-1-0--3---1-0-1--1-3--3-1-0-1-3-1-0--1-3--
B-3-5--5-3-1-3-5-3-1--5---3-1-3--3-5--5-3-1-3-5-3-1--3-5-
G---------------------------------------------------------
D---------------------------------------------------------
A---------------------------------------------------------
E---------------------------------------------------------

E-3-1-0-1-3-1-0--1-3--3-1-0-1-3-1-0--3---5-3-1--0----------
B-5-3-1-3-5-3-1--3-5--1-3-1-3-5-3-1--5---6-5-3--1----------
G--------------------------------------------------------0-
D---------------------------------------------------0H2----
A----------------------------------------------------------
E----------------------------------------------------------

E----------------------------------------------------------
B----------------------------------------------------------
G-----0-------0---------0--------0-------0-------0------0--
D-0H2-----0H2-------0H2------0H2-----0H2-----0H2----0H2----
A----------------3-------------------------3---------------
E----------------------------------------------------------

E----------------------------------------------------------
B----------------------------------------------------------
G-----0----------------------------------------------------
D-0H2------------------------------------------------------
A-------3--------------------------------------------------
E----------------------------------------------------------


C Em Camino sobre sueños, innecesarios y rotos
F G Prisionero iluso, de esta selva cotidiana.
F Am Y como hoja seca, que vaga en el viento,
D G Vuelo imaginario, sobre escombros de concreto.
C Em Navego en el mar, de las cosas exactas,
F G Enclavado en momentos, de semánticas gastadas.
F Am Y cual si fuera una nube, esculpida sobre el cielo,
D G Dibujo insatisfecho, mis huellas en el invierno.
C Em Ya que yo, no tengo tiempo de cambiar mi vida,
F G la maquina me ha vuelto una sombra borrosa.
F Am Y cual si fuera la tuerca que han negado tus ojos
D G se que aun tengo tiempo para atrancar en buen puerto. E-----------------1-3--3-1-0-1-3-1-0--1-3--3-1-0-1-3-1-0-- B-----------------3-5--5-3-1-3-5-3-1--3-5--5-3-1-3-5-3-1-- G--------------------------------------------------------- D--------------------------------------------------------- A--------------------------------------------------------- E--------------------------------------------------------- E-1-3--3-1-0-1-3-1-0--3---1-0-1--1-3--3-1-0-1-3-1-0--1-3-- B-3-5--5-3-1-3-5-3-1--5---3-1-3--3-5--5-3-1-3-5-3-1--3-5- G--------------------------------------------------------- D--------------------------------------------------------- A--------------------------------------------------------- E--------------------------------------------------------- E-3-1-0-1-3-1-0--1-3--3-1-0-1-3-1-0--3---5-3-1--0---------- B-5-3-1-3-5-3-1--3-5--1-3-1-3-5-3-1--5---6-5-3--1---------- G--------------------------------------------------------0- D---------------------------------------------------0H2---- A---------------------------------------------------------- E---------------------------------------------------------- E---------------------------------------------------------- B---------------------------------------------------------- G-----0-------0---------0--------0-------0-------0------0-- D-0H2-----0H2-------0H2------0H2-----0H2-----0H2----0H2---- A----------------3-------------------------3--------------- E---------------------------------------------------------- E---------------------------------------------------------- B---------------------------------------------------------- G-----0---------------------------------------------------- D-0H2------------------------------------------------------ A-------3-------------------------------------------------- E----------------------------------------------------------
C Em Camino automático, en una alfombra de status,
F G Masticando en mi menté, las verdades mas sabidas.
F Am Y cual si fuera la espuma, de un anuncio de cerveza,
D G Una marca me ha vendido ya la forma de mi cabeza.
C Em Sabes que, manejo implacable, en mi nave cibernética,
F G Entre aquel laberinto, de los planetas muertos.
F Am Y como lobo salvaje, que ha perdido su camino,
D G He llenado mis bolsillos, con escombros del destino.
C Em Ya que yo, no tengo tiempo de cambiar mi vida,
F G la maquina me ha vuelto una sombra borrosa.
F Am Y cual si fuera la tuerca que han negado tus ojos
D G se que aun tengo tiempo para atrancar en buen puerto. Espero que les guste ya pues esta es mi primera trascripción si checas algún error solo háganmelo saber a mi correo ivan328@msn.com PÓRTENSE MAL PERO CUÍDENSE BIEN
Este fichero es trabajo propio de su transcriptor y representa su interpretación personal de la canción. El material contenido en esta página es
para exclusivo uso privado, por lo que se prohibe su reproducción o retransmisión, así como su uso para fines comerciales.

© LaCuerda.net · Aviso Legal · Privacidad