Acordes de Guitarra » G »Guiso » Flojo (Tab)

Flojo
Guiso

Letras, Acordes y Tabs para Guitarra, Bajo y Ukulele

  • ---------------------    ---------------------
    ---------------------    ---------------------
    ---------------------    ---------------------
    ---------------------    ---------------------
    ---------------------    -------------5-----5-
    --0-0-0-0-0-0-0-0----    -0-0-0-0-5h7---5h7---
    
    Riff 3  (2x)             Riff 4
    ---------------------    ---------------------------
    ---------------------    ---------------------------
    ---------------------    ---------------------------
    ---------------------    ---------------------------
    --7--7--5---5--7--5--    --7--7--5---5--7--5----7--7
    ----------7----------    ----------7----------------
    
    Riff 1
    Riff 2
    
    MI - RE - RE# - Riff 3
    Si te sientes mal, ven acá y dimelo
    
  • +
    ¡Colabora con nosotros!
    Envíanos tu versión de esta canción

Letra de Flojo
Riff 3 (2x) Riff 4
Riff 1
Riff 2
Si te sientes mal, ven acá y dimelo
te aseguro que en la escusa no hay explicacion
Es mentira para ti, es mentira para mi
si no entiendes (...)
Puede ser muy fácil (no lo es)
puede ser verdad
puedo apostarlo todo a que nunca vas a actuar
Si lo ves así, no es mi propia decisión
yo también tengo sexo y tengo rock and roll
sólo me perturba en tí, esa estúpida actitud
de quedarte acostado y no hacer (...)
Puede ser muy fácil (no lo es)
puede ser verdad
puedo apostarlo todo a que nunca vas a (...)
(aquí viene un punteo magnífico que no soy capaz de sacar)
Si tu situación no es fácil..
Cierre
Humilde.. si hay errores, publiquen la buena..

Video de Flojo
[]




[Flojo chords][Flojo cifra]
© LaCuerda.net · aviso legal · privacidad · es · en · pt · contacto
DINAMICO