Acordes de Guitarra » G »Guiso » Bar (Tab)

Bar
Guiso

Letras, Acordes y Tabs para Guitarra, Bajo y Ukulele

  • Afinación  : D A D G B E
    
    
    Riff 1
    Riff 1.A                            Riff 1.B
    |---14--14---------------------|    |--------------------|
    |---15--13------------10-------|    |--------------------|
    |---14----------10/11----------|    |--------------------|
    |-0-----------------------(12)-|    |--0----101010--1010-|
    |-0----------------------------|    |--0----8/9-9---8----|
    |-0----------------------------|    |--0-----------------|
    
    
    Riff 2
    |-------------------|
    |-------------------|
    |-------------------|
    |-0----101010--1010-|
    |-0----8/9-9---8----|
    |-0-----------------|
    
  • +
    ¡Colabora con nosotros!
    Envíanos tu versión de esta canción

Letra de Bar
Riff 1
Riff 2
Riff 3
Riff 4
Riff 1
Salio y se va
Salio al Bar
Riff 3
y salud,
salud
Riff 3 4x
Riff 4 1x
Riff 3
Sale el Sol, sale el sol
sale junto al bar
Riff 4
sale el sol, sale el sol
Riff 3
Sale el sol, sale el sol
sale junto al bar
sale el sol, sale el sol
Riff 1
Riff 1
Salio del bar
y se puso a pensar
y vio la luz. vio la luz
Riff 3
Sale el Sol, sale el sol
sale junto al bar
Riff 4
sale el sol, sale el sol
Riff 3
Sale el sol, sale el sol
sale junto al bar
sale el sol, sale el sol
Punteo & Riff 1.a
Riff 1
Salió temprano sin disimular
Salió temprano sin disimular
Salió temprano sin disimular
Salió temprano sin disimular
Riff 3
Salió temprano sin disimular
Riff 3
Salió temprano sin disimular
Riff 3
Se vé, se vé, se vé, se veééééé!!!
Riff 3 4x > 2x
Riff 4 1x /
4x
|-5-|
|-5-|
|-5-|

Video de Bar
[]




[Bar chords][Bar cifra]
© LaCuerda.net · aviso legal · privacidad · es · en · pt · contacto
DINAMICO